  0
SECTION
  2
HEADER
  9
$ACADVER
  1
AC1014
  9
$ACADMAINTVER
 70
     9
  9
$DWGCODEPAGE
  3
ANSI_1252
  9
$INSBASE
 10
0.0
 20
0.0
 30
0.0
  9
$EXTMIN
 10
890.8818969726561
 20
417.9577331542968
 30
0.0000000000038814
  9
$EXTMAX
 10
936.8819274902343
 20
438.8426971435546
 30
95.99999999999999
  9
$LIMMIN
 10
0.0
 20
0.0
  9
$LIMMAX
 10
12.0
 20
9.0
  9
$ORTHOMODE
 70
     0
  9
$REGENMODE
 70
     1
  9
$FILLMODE
 70
     1
  9
$QTEXTMODE
 70
     0
  9
$MIRRTEXT
 70
     0
  9
$DRAGMODE
 70
     2
  9
$LTSCALE
 40
1.0
  9
$OSMODE
 70
    37
  9
$ATTMODE
 70
     1
  9
$TEXTSIZE
 40
0.2
  9
$TRACEWID
 40
0.05
  9
$TEXTSTYLE
  7
STANDARD
  9
$CLAYER
  8
0
  9
$CELTYPE
  6
BYLAYER
  9
$CECOLOR
 62
   256
  9
$CELTSCALE
 40
1.0
  9
$DELOBJ
 70
     1
  9
$DISPSILH
 70
     0
  9
$DIMSCALE
 40
1.0
  9
$DIMASZ
 40
0.18
  9
$DIMEXO
 40
0.0625
  9
$DIMDLI
 40
0.38
  9
$DIMRND
 40
0.0
  9
$DIMDLE
 40
0.0
  9
$DIMEXE
 40
0.18
  9
$DIMTP
 40
0.0
  9
$DIMTM
 40
0.0
  9
$DIMTXT
 40
0.18
  9
$DIMCEN
 40
0.09
  9
$DIMTSZ
 40
0.0
  9
$DIMTOL
 70
     0
  9
$DIMLIM
 70
     0
  9
$DIMTIH
 70
     1
  9
$DIMTOH
 70
     1
  9
$DIMSE1
 70
     0
  9
$DIMSE2
 70
     0
  9
$DIMTAD
 70
     0
  9
$DIMZIN
 70
     0
  9
$DIMBLK
  1

  9
$DIMASO
 70
     1
  9
$DIMSHO
 70
     1
  9
$DIMPOST
  1

  9
$DIMAPOST
  1

  9
$DIMALT
 70
     0
  9
$DIMALTD
 70
     2
  9
$DIMALTF
 40
25.4
  9
$DIMLFAC
 40
1.0
  9
$DIMTOFL
 70
     0
  9
$DIMTVP
 40
0.0
  9
$DIMTIX
 70
     0
  9
$DIMSOXD
 70
     0
  9
$DIMSAH
 70
     0
  9
$DIMBLK1
  1

  9
$DIMBLK2
  1

  9
$DIMSTYLE
  2
STANDARD
  9
$DIMCLRD
 70
     0
  9
$DIMCLRE
 70
     0
  9
$DIMCLRT
 70
     0
  9
$DIMTFAC
 40
1.0
  9
$DIMGAP
 40
0.09
  9
$DIMJUST
 70
     0
  9
$DIMSD1
 70
     0
  9
$DIMSD2
 70
     0
  9
$DIMTOLJ
 70
     1
  9
$DIMTZIN
 70
     0
  9
$DIMALTZ
 70
     0
  9
$DIMALTTZ
 70
     0
  9
$DIMFIT
 70
     3
  9
$DIMUPT
 70
     0
  9
$DIMUNIT
 70
     4
  9
$DIMDEC
 70
     4
  9
$DIMTDEC
 70
     4
  9
$DIMALTU
 70
     4
  9
$DIMALTTD
 70
     2
  9
$DIMTXSTY
  7
STANDARD
  9
$DIMAUNIT
 70
     0
  9
$LUNITS
 70
     4
  9
$LUPREC
 70
     4
  9
$SKETCHINC
 40
0.1
  9
$FILLETRAD
 40
0.0
  9
$AUNITS
 70
     0
  9
$AUPREC
 70
     0
  9
$MENU
  1
.
  9
$ELEVATION
 40
0.0
  9
$PELEVATION
 40
0.0
  9
$THICKNESS
 40
0.0
  9
$LIMCHECK
 70
     0
  9
$CHAMFERA
 40
0.0
  9
$CHAMFERB
 40
0.0
  9
$CHAMFERC
 40
0.0
  9
$CHAMFERD
 40
0.0
  9
$SKPOLY
 70
     0
  9
$TDCREATE
 40
2455296.519504641
  9
$TDUPDATE
 40
2455296.519504641
  9
$TDINDWG
 40
0.0
  9
$TDUSRTIMER
 40
0.0
  9
$USRTIMER
 70
     1
  9
$ANGBASE
 50
0.0
  9
$ANGDIR
 70
     0
  9
$PDMODE
 70
     0
  9
$PDSIZE
 40
0.0
  9
$PLINEWID
 40
0.0
  9
$COORDS
 70
     1
  9
$SPLFRAME
 70
     0
  9
$SPLINETYPE
 70
     6
  9
$SPLINESEGS
 70
     8
  9
$ATTDIA
 70
     0
  9
$ATTREQ
 70
     1
  9
$HANDLING
 70
     1
  9
$HANDSEED
  5
411
  9
$SURFTAB1
 70
     6
  9
$SURFTAB2
 70
     6
  9
$SURFTYPE
 70
     6
  9
$SURFU
 70
     6
  9
$SURFV
 70
     6
  9
$UCSNAME
  2

  9
$UCSORG
 10
0.0
 20
0.0
 30
0.0
  9
$UCSXDIR
 10
1.0
 20
0.0
 30
0.0
  9
$UCSYDIR
 10
0.0
 20
1.0
 30
0.0
  9
$PUCSNAME
  2

  9
$PUCSORG
 10
0.0
 20
0.0
 30
0.0
  9
$PUCSXDIR
 10
1.0
 20
0.0
 30
0.0
  9
$PUCSYDIR
 10
0.0
 20
1.0
 30
0.0
  9
$USERI1
 70
     0
  9
$USERI2
 70
     0
  9
$USERI3
 70
     0
  9
$USERI4
 70
     0
  9
$USERI5
 70
     0
  9
$USERR1
 40
0.0
  9
$USERR2
 40
0.0
  9
$USERR3
 40
0.0
  9
$USERR4
 40
0.0
  9
$USERR5
 40
0.0
  9
$WORLDVIEW
 70
     1
  9
$SHADEDGE
 70
     3
  9
$SHADEDIF
 70
    70
  9
$TILEMODE
 70
     1
  9
$MAXACTVP
 70
    64
  9
$PINSBASE
 10
0.0
 20
0.0
 30
0.0
  9
$PLIMCHECK
 70
     0
  9
$PEXTMIN
 10
1.000000000000000E+20
 20
1.000000000000000E+20
 30
1.000000000000000E+20
  9
$PEXTMAX
 10
-1.000000000000000E+20
 20
-1.000000000000000E+20
 30
-1.000000000000000E+20
  9
$PLIMMIN
 10
0.0
 20
0.0
  9
$PLIMMAX
 10
12.0
 20
9.0
  9
$UNITMODE
 70
     0
  9
$VISRETAIN
 70
     1
  9
$PLINEGEN
 70
     0
  9
$PSLTSCALE
 70
     1
  9
$TREEDEPTH
 70
  3020
  9
$PICKSTYLE
 70
     1
  9
$CMLSTYLE
  2
STANDARD
  9
$CMLJUST
 70
     0
  9
$CMLSCALE
 40
1.0
  9
$PROXYGRAPHICS
 70
     1
  9
$MEASUREMENT
 70
     0
  0
ENDSEC
  0
SECTION
  2
CLASSES
  0
CLASS
  1
ACDBDICTIONARYWDFLT
  2
AcDbDictionaryWithDefault
  3
ObjectDBX Classes
 90
        0
280
     0
281
     0
  0
CLASS
  1
MATERIAL
  2
AcDbMaterial
  3
ObjectDBX Classes
 90
     1153
280
     0
281
     0
  0
CLASS
  1
VISUALSTYLE
  2
AcDbVisualStyle
  3
ObjectDBX Classes
 90
     4095
280
     0
281
     0
  0
CLASS
  1
SCALE
  2
AcDbScale
  3
ObjectDBX Classes
 90
     1153
280
     0
281
     0
  0
CLASS
  1
TABLESTYLE
  2
AcDbTableStyle
  3
ObjectDBX Classes
 90
     4095
280
     0
281
     0
  0
CLASS
  1
MLEADERSTYLE
  2
AcDbMLeaderStyle
  3
ACDB_MLEADERSTYLE_CLASS
 90
     4095
280
     0
281
     0
  0
CLASS
  1
SUN
  2
AcDbSun
  3
SCENEOE
 90
     1024
280
     0
281
     0
  0
CLASS
  1
CELLSTYLEMAP
  2
AcDbCellStyleMap
  3
ObjectDBX Classes
 90
     1152
280
     0
281
     0
  0
CLASS
  1
DICTIONARYVAR
  2
AcDbDictionaryVar
  3
ObjectDBX Classes
 90
        0
280
     0
281
     0
  0
CLASS
  1
ACDBPLACEHOLDER
  2
AcDbPlaceHolder
  3
ObjectDBX Classes
 90
        0
280
     0
281
     0
  0
CLASS
  1
LAYOUT
  2
AcDbLayout
  3
ObjectDBX Classes
 90
        0
280
     0
281
     0
  0
CLASS
  1
XRECORD
  2
AcDbXrecord
  3
AutoCAD 2000
 90
        0
280
     0
281
     0
  0
CLASS
  1
LWPOLYLINE
  2
AcDbPolyline
  3
AutoCAD 2000
 90
        0
280
     0
281
     1
  0
CLASS
  1
HATCH
  2
AcDbHatch
  3
AutoCAD 2000
 90
        0
280
     0
281
     1
  0
ENDSEC
  0
SECTION
  2
TABLES
  0
TABLE
  2
VPORT
  5
8
102
{ACAD_XDICTIONARY
360
408
102
}
330
0
100
AcDbSymbolTable
 70
     1
  0
VPORT
  5
5F
330
8
100
AcDbSymbolTableRecord
100
AcDbViewportTableRecord
  2
*ACTIVE
 70
     0
 10
0.0
 20
0.0
 11
1.0
 21
1.0
 12
913.8819122314452
 22
428.4002151489257
 13
0.0
 23
0.0
 14
1.0
 24
1.0
 15
0.0
 25
0.0
 16
773.8497715906145
 26
-1484.339990681048
 36
364.7834412181275
 17
950.6509984197236
 27
545.7118685230454
 37
-42.41590822906849
 40
20.88496398925781
 41
2.20254296541944
 42
50.0
 43
0.0
 44
0.0
 50
0.0
 51
0.0
 71
     0
 72
   100
 73
     1
 74
     1
 75
     0
 76
     0
 77
     0
 78
     0
  0
ENDTAB
  0
TABLE
  2
LTYPE
  5
5
330
0
100
AcDbSymbolTable
 70
     1
  0
LTYPE
  5
63
330
5
100
AcDbSymbolTableRecord
100
AcDbLinetypeTableRecord
  2
BYBLOCK
 70
     0
  3

 72
    65
 73
     0
 40
0.0
  0
LTYPE
  5
64
330
5
100
AcDbSymbolTableRecord
100
AcDbLinetypeTableRecord
  2
BYLAYER
 70
     0
  3

 72
    65
 73
     0
 40
0.0
  0
LTYPE
  5
65
330
5
100
AcDbSymbolTableRecord
100
AcDbLinetypeTableRecord
  2
CONTINUOUS
 70
     0
  3
Solid line
 72
    65
 73
     0
 40
0.0
  0
ENDTAB
  0
TABLE
  2
LAYER
  5
2
330
0
100
AcDbSymbolTable
 70
     2
  0
LAYER
  5
5C
330
2
100
AcDbSymbolTableRecord
100
AcDbLayerTableRecord
  2
0
 70
     0
 62
     7
  6
CONTINUOUS
  0
LAYER
  5
80
330
2
100
AcDbSymbolTableRecord
100
AcDbLayerTableRecord
  2
3D-GLAZ
 70
     0
 62
     6
  6
CONTINUOUS
  0
ENDTAB
  0
TABLE
  2
STYLE
  5
3
330
0
100
AcDbSymbolTable
 70
     2
  0
STYLE
  5
5D
330
3
100
AcDbSymbolTableRecord
100
AcDbTextStyleTableRecord
  2
STANDARD
 70
     0
 40
0.0
 41
1.0
 50
0.0
 71
     0
 42
0.2
  3
txt
  4

  0
STYLE
  5
62
330
3
100
AcDbSymbolTableRecord
100
AcDbTextStyleTableRecord
  2
ANNOTATIVE
 70
     0
 40
0.0
 41
1.0
 50
0.0
 71
     0
 42
0.2
  3
txt
  4

1001
ACADANNOTATIVE
1000
AnnotativeData
1002
{
1070
     1
1070
     1
1002
}
  0
ENDTAB
  0
TABLE
  2
VIEW
  5
6
330
0
100
AcDbSymbolTable
 70
     1
  0
VIEW
  5
3BB
102
{ACAD_XDICTIONARY
360
3D2
102
}
330
6
100
AcDbSymbolTableRecord
100
AcDbViewTableRecord
  2
_3D_
 70
     0
 40
2400.0
 10
0.0
 20
0.0
 41
2400.0
 11
773.8497715906145
 21
-1484.339990681048
 31
364.7834412181275
 12
950.6509984197236
 22
545.7118685230454
 32
-42.41590822906849
 42
50.0
 43
0.0
 44
0.0
 50
0.0
 71
     0
  0
ENDTAB
  0
TABLE
  2
UCS
  5
7
330
0
100
AcDbSymbolTable
 70
     0
  0
ENDTAB
  0
TABLE
  2
APPID
  5
9
330
0
100
AcDbSymbolTable
 70
     4
  0
APPID
  5
5E
330
9
100
AcDbSymbolTableRecord
100
AcDbRegAppTableRecord
  2
ACAD
 70
     0
  0
APPID
  5
66
330
9
100
AcDbSymbolTableRecord
100
AcDbRegAppTableRecord
  2
ACADANNOTATIVE
 70
     0
  0
APPID
  5
70
330
9
100
AcDbSymbolTableRecord
100
AcDbRegAppTableRecord
  2
ACAD_MLEADERVER
 70
     0
  0
APPID
  5
7D
330
9
100
AcDbSymbolTableRecord
100
AcDbRegAppTableRecord
  2
REVIT
 70
     0
  0
ENDTAB
  0
TABLE
  2
DIMSTYLE
  5
A
330
0
100
AcDbSymbolTable
 70
     2
  0
DIMSTYLE
105
60
330
A
100
AcDbSymbolTableRecord
100
AcDbDimStyleTableRecord
  2
STANDARD
 70
     0
  3

  4

  5

  6

  7

 40
1.0
 41
0.18
 42
0.0625
 43
0.38
 44
0.18
 45
0.0
 46
0.0
 47
0.0
 48
0.0
140
0.18
141
0.09
142
0.0
143
25.4
144
1.0
145
0.0
146
1.0
147
0.09
 71
     0
 72
     0
 73
     1
 74
     1
 75
     0
 76
     0
 77
     0
 78
     0
170
     0
171
     2
172
     0
173
     0
174
     0
175
     0
176
     0
177
     0
178
     0
270
     2
271
     4
272
     4
273
     2
274
     2
340
5D
275
     0
280
     0
281
     0
282
     0
283
     1
284
     0
285
     0
286
     0
287
     3
288
     0
  0
DIMSTYLE
105
61
330
A
100
AcDbSymbolTableRecord
100
AcDbDimStyleTableRecord
  2
ANNOTATIVE
 70
     0
  3

  4

  5

  6

  7

 40
1.0
 41
0.18
 42
0.0625
 43
0.38
 44
0.18
 45
0.0
 46
0.0
 47
0.0
 48
0.0
140
0.18
141
0.09
142
0.0
143
25.4
144
1.0
145
0.0
146
1.0
147
0.09
 71
     0
 72
     0
 73
     1
 74
     1
 75
     0
 76
     0
 77
     0
 78
     0
170
     0
171
     2
172
     0
173
     0
174
     0
175
     0
176
     0
177
     0
178
     0
270
     2
271
     4
272
     4
273
     2
274
     2
340
5D
275
     0
280
     0
281
     0
282
     0
283
     1
284
     0
285
     0
286
     0
287
     3
288
     0
1001
ACADANNOTATIVE
1000
AnnotativeData
1002
{
1070
     1
1070
     1
1002
}
  0
ENDTAB
  0
TABLE
  2
BLOCK_RECORD
  5
1
330
0
100
AcDbSymbolTable
 70
     3
  0
BLOCK_RECORD
  5
75
330
1
100
AcDbSymbolTableRecord
100
AcDbBlockTableRecord
  2
*MODEL_SPACE
  0
BLOCK_RECORD
  5
71
330
1
100
AcDbSymbolTableRecord
100
AcDbBlockTableRecord
  2
*PAPER_SPACE
  0
BLOCK_RECORD
  5
7F
330
1
100
AcDbSymbolTableRecord
100
AcDbBlockTableRecord
  2
FAMILYGEOMCOMBI__2974-_3D_
  0
BLOCK_RECORD
  5
84
330
1
100
AcDbSymbolTableRecord
100
AcDbBlockTableRecord
  2
FAMILYGEOMCOMBI__3037-_3D_
  0
ENDTAB
  0
ENDSEC
  0
SECTION
  2
BLOCKS
  0
BLOCK
  5
76
330
75
100
AcDbEntity
  8
0
100
AcDbBlockBegin
  2
*MODEL_SPACE
 70
     0
 10
0.0
 20
0.0
 30
0.0
  3
*MODEL_SPACE
  1

  0
ENDBLK
  5
77
330
75
100
AcDbEntity
  8
0
100
AcDbBlockEnd
  0
BLOCK
  5
72
330
71
100
AcDbEntity
 67
     1
  8
0
100
AcDbBlockBegin
  2
*PAPER_SPACE
 70
     0
 10
0.0
 20
0.0
 30
0.0
  3
*PAPER_SPACE
  1

  0
ENDBLK
  5
73
330
71
100
AcDbEntity
 67
     1
  8
0
100
AcDbBlockEnd
  0
BLOCK
  5
81
330
7F
100
AcDbEntity
  8
0
100
AcDbBlockBegin
  2
FAMILYGEOMCOMBI__2974-_3D_
 70
     0
 10
0.0
 20
0.0
 30
0.0
  3
FAMILYGEOMCOMBI__2974-_3D_
  1

  0
ENDBLK
  5
82
330
7F
100
AcDbEntity
  8
0
100
AcDbBlockEnd
  0
BLOCK
  5
85
330
84
100
AcDbEntity
  8
0
100
AcDbBlockBegin
  2
FAMILYGEOMCOMBI__3037-_3D_
 70
     0
 10
0.0
 20
0.0
 30
0.0
  3
FAMILYGEOMCOMBI__3037-_3D_
  1

  0
ENDBLK
  5
86
330
84
100
AcDbEntity
  8
0
100
AcDbBlockEnd
  0
ENDSEC
  0
SECTION
  2
ENTITIES
  0
INSERT
  5
83
330
75
100
AcDbEntity
  8
0
100
AcDbBlockReference
  2
FAMILYGEOMCOMBI__2974-_3D_
 10
0.0
 20
0.0
 30
0.0
  0
INSERT
  5
87
330
75
100
AcDbEntity
  8
0
100
AcDbBlockReference
  2
FAMILYGEOMCOMBI__3037-_3D_
 10
0.0
 20
0.0
 30
0.0
  0
POLYLINE
  5
88
330
75
100
AcDbEntity
  8
3D-GLAZ
100
AcDbPolyFaceMesh
 66
     1
 10
0.0
 20
0.0
 30
0.0
 70
    64
 71
    60
 72
    30
1001
REVIT
1002
{
1070
     1
1000
8352
1002
}
1002
{
1070
     4
1000
10191
1002
}
1002
{
1070
     2
1000
-2000014
1002
}
  0
VERTEX
  5
89
330
88
100
AcDbEntity
  8
3D-GLAZ
100
AcDbVertex
100
AcDbPolyFaceMeshVertex
 10
911.6524658203124
 20
430.583267211914
 30
0.00000000000406
 70
   192
  0
VERTEX
  5
8A
330
88
100
AcDbEntity
  8
3D-GLAZ
100
AcDbVertex
100
AcDbPolyFaceMeshVertex
 10
910.974151611328
 20
432.6709442138671
 30
0.0000000000040889
 70
   192
  0
VERTEX
  5
8B
330
88
100
AcDbEntity
  8
3D-GLAZ
100
AcDbVertex
100
AcDbPolyFaceMeshVertex
 10
909.8766174316405
 20
434.5719451904296
 30
0.0000000000041151
 70
   192
  0
VERTEX
  5
8C
330
88
100
AcDbEntity
  8
3D-GLAZ
100
AcDbVertex
100
AcDbPolyFaceMeshVertex
 10
908.407745361328
 20
436.2032318115234
 30
0.0000000000041377
 70
   192
  0
VERTEX
  5
8D
330
88
100
AcDbEntity
  8
3D-GLAZ
100
AcDbVertex
100
AcDbPolyFaceMeshVertex
 10
906.6318969726561
 20
437.4934844970703
 30
0.0000000000041555
 70
   192
  0
VERTEX
  5
8E
330
88
100
AcDbEntity
  8
3D-GLAZ
100
AcDbVertex
100
AcDbPolyFaceMeshVertex
 10
904.6266174316405
 20
438.3863067626953
 30
0.0000000000041679
 70
   192
  0
VERTEX
  5
8F
330
88
100
AcDbEntity
  8
3D-GLAZ
100
AcDbVertex
100
AcDbPolyFaceMeshVertex
 10
902.4794311523436
 20
438.8426971435546
 30
0.0000000000041742
 70
   192
  0
VERTEX
  5
90
330
88
100
AcDbEntity
  8
3D-GLAZ
100
AcDbVertex
100
AcDbPolyFaceMeshVertex
 10
900.2843627929686
 20
438.8426971435546
 30
0.0000000000041742
 70
   192
  0
VERTEX
  5
91
330
88
100
AcDbEntity
  8
3D-GLAZ
100
AcDbVertex
100
AcDbPolyFaceMeshVertex
 10
898.1372680664061
 20
438.3863067626953
 30
0.0000000000041679
 70
   192
  0
VERTEX
  5
92
330
88
100
AcDbEntity
  8
3D-GLAZ
100
AcDbVertex
100
AcDbPolyFaceMeshVertex
 10
896.1318969726561
 20
437.4934844970703
 30
0.0000000000041555
 70
   192
  0
VERTEX
  5
93
330
88
100
AcDbEntity
  8
3D-GLAZ
100
AcDbVertex
100
AcDbPolyFaceMeshVertex
 10
894.3560485839843
 20
436.2032318115234
 30
0.0000000000041377
 70
   192
  0
VERTEX
  5
94
330
88
100
AcDbEntity
  8
3D-GLAZ
100
AcDbVertex
100
AcDbPolyFaceMeshVertex
 10
892.8872680664061
 20
434.5719451904296
 30
0.0000000000041151
 70
   192
  0
VERTEX
  5
95
330
88
100
AcDbEntity
  8
3D-GLAZ
100
AcDbVertex
100
AcDbPolyFaceMeshVertex
 10
891.7896423339843
 20
432.6709442138671
 30
0.0000000000040889
 70
   192
  0
VERTEX
  5
96
330
88
100
AcDbEntity
  8
3D-GLAZ
100
AcDbVertex
100
AcDbPolyFaceMeshVertex
 10
891.1113281249999
 20
430.583267211914
 30
0.00000000000406
 70
   192
  0
VERTEX
  5
97
330
88
100
AcDbEntity
  8
3D-GLAZ
100
AcDbVertex
100
AcDbPolyFaceMeshVertex
 10
890.8818969726561
 20
428.4001922607421
 30
0.0000000000040298
 70
   192
  0
VERTEX
  5
98
330
88
100
AcDbEntity
  8
3D-GLAZ
100
AcDbVertex
100
AcDbPolyFaceMeshVertex
 10
891.1113281249999
 20
426.2171173095703
 30
0.0000000000039996
 70
   192
  0
VERTEX
  5
99
330
88
100
AcDbEntity
  8
3D-GLAZ
100
AcDbVertex
100
AcDbPolyFaceMeshVertex
 10
891.7896423339843
 20
424.1294860839843
 30
0.0000000000039707
 70
   192
  0
VERTEX
  5
9A
330
88
100
AcDbEntity
  8
3D-GLAZ
100
AcDbVertex
100
AcDbPolyFaceMeshVertex
 10
892.8872680664061
 20
422.2284393310546
 30
0.0000000000039445
 70
   192
  0
VERTEX
  5
9B
330
88
100
AcDbEntity
  8
3D-GLAZ
100
AcDbVertex
100
AcDbPolyFaceMeshVertex
 10
894.3560485839843
 20
420.5971984863281
 30
0.0000000000039219
 70
   192
  0
VERTEX
  5
9C
330
88
100
AcDbEntity
  8
3D-GLAZ
100
AcDbVertex
100
AcDbPolyFaceMeshVertex
 10
896.1318969726561
 20
419.3069458007812
 30
0.0000000000039041
 70
   192
  0
VERTEX
  5
9D
330
88
100
AcDbEntity
  8
3D-GLAZ
100
AcDbVertex
100
AcDbPolyFaceMeshVertex
 10
898.1372680664061
 20
418.4141235351562
 30
0.0000000000038917
 70
   192
  0
VERTEX
  5
9E
330
88
100
AcDbEntity
  8
3D-GLAZ
100
AcDbVertex
100
AcDbPolyFaceMeshVertex
 10
900.2843627929686
 20
417.9577331542968
 30
0.0000000000038854
 70
   192
  0
VERTEX
  5
9F
330
88
100
AcDbEntity
  8
3D-GLAZ
100
AcDbVertex
100
AcDbPolyFaceMeshVertex
 10
902.4794311523436
 20
417.9577331542968
 30
0.0000000000038854
 70
   192
  0
VERTEX
  5
A0
330
88
100
AcDbEntity
  8
3D-GLAZ
100
AcDbVertex
100
AcDbPolyFaceMeshVertex
 10
904.6266174316405
 20
418.4141235351562
 30
0.0000000000038917
 70
   192
  0
VERTEX
  5
A1
330
88
100
AcDbEntity
  8
3D-GLAZ
100
AcDbVertex
100
AcDbPolyFaceMeshVertex
 10
906.6318969726561
 20
419.3069458007812
 30
0.0000000000039041
 70
   192
  0
VERTEX
  5
A2
330
88
100
AcDbEntity
  8
3D-GLAZ
100
AcDbVertex
100
AcDbPolyFaceMeshVertex
 10
908.407745361328
 20
420.5971984863281
 30
0.0000000000039219
 70
   192
  0
VERTEX
  5
A3
330
88
100
AcDbEntity
  8
3D-GLAZ
100
AcDbVertex
100
AcDbPolyFaceMeshVertex
 10
909.8766174316405
 20
422.2284393310546
 30
0.0000000000039445
 70
   192
  0
VERTEX
  5
A4
330
88
100
AcDbEntity
  8
3D-GLAZ
100
AcDbVertex
100
AcDbPolyFaceMeshVertex
 10
910.974151611328
 20
424.1294860839843
 30
0.0000000000039707
 70
   192
  0
VERTEX
  5
A5
330
88
100
AcDbEntity
  8
3D-GLAZ
100
AcDbVertex
100
AcDbPolyFaceMeshVertex
 10
911.6524658203124
 20
426.2171173095703
 30
0.0000000000039996
 70
   192
  0
VERTEX
  5
A6
330
88
100
AcDbEntity
  8
3D-GLAZ
100
AcDbVertex
100
AcDbPolyFaceMeshVertex
 10
911.8818969726561
 20
428.4001922607421
 30
0.0000000000040298
 70
   192
  0
VERTEX
  5
A7
330
88
100
AcDbEntity
  8
3D-GLAZ
100
AcDbVertex
100
AcDbPolyFaceMeshVertex
 10
891.2336425781249
 20
430.5572662353515
 30
0.0000000000040596
 70
   192
  0
VERTEX
  5
A8
330
88
100
AcDbEntity
  8
3D-GLAZ
100
AcDbVertex
100
AcDbPolyFaceMeshVertex
 10
891.9039001464843
 20
432.6200866699218
 30
0.0000000000040882
 70
   192
  0
VERTEX
  5
A9
330
88
100
AcDbEntity
  8
3D-GLAZ
100
AcDbVertex
100
AcDbPolyFaceMeshVertex
 10
892.9883422851561
 20
434.4984741210937
 30
0.0000000000041141
 70
   192
  0
VERTEX
  5
AA
330
88
100
AcDbEntity
  8
3D-GLAZ
100
AcDbVertex
100
AcDbPolyFaceMeshVertex
 10
894.4396362304686
 20
436.1103515624999
 30
0.0000000000041364
 70
   192
  0
VERTEX
  5
AB
330
88
100
AcDbEntity
  8
3D-GLAZ
100
AcDbVertex
100
AcDbPolyFaceMeshVertex
 10
896.1944274902343
 20
437.3852233886718
 30
0.000000000004154
 70
   192
  0
VERTEX
  5
AC
330
88
100
AcDbEntity
  8
3D-GLAZ
100
AcDbVertex
100
AcDbPolyFaceMeshVertex
 10
898.175811767578
 20
438.2674255371093
 30
0.0000000000041662
 70
   192
  0
VERTEX
  5
AD
330
88
100
AcDbEntity
  8
3D-GLAZ
100
AcDbVertex
100
AcDbPolyFaceMeshVertex
 10
900.2974548339843
 20
438.7183685302734
 30
0.0000000000041725
 70
   192
  0
VERTEX
  5
AE
330
88
100
AcDbEntity
  8
3D-GLAZ
100
AcDbVertex
100
AcDbPolyFaceMeshVertex
 10
902.4664306640624
 20
438.7183685302734
 30
0.0000000000041725
 70
   192
  0
VERTEX
  5
AF
330
88
100
AcDbEntity
  8
3D-GLAZ
100
AcDbVertex
100
AcDbPolyFaceMeshVertex
 10
904.5879821777343
 20
438.2674255371093
 30
0.0000000000041662
 70
   192
  0
VERTEX
  5
B0
330
88
100
AcDbEntity
  8
3D-GLAZ
100
AcDbVertex
100
AcDbPolyFaceMeshVertex
 10
906.569366455078
 20
437.3852233886718
 30
0.000000000004154
 70
   192
  0
VERTEX
  5
B1
330
88
100
AcDbEntity
  8
3D-GLAZ
100
AcDbVertex
100
AcDbPolyFaceMeshVertex
 10
908.3241577148436
 20
436.1103515624999
 30
0.0000000000041364
 70
   192
  0
VERTEX
  5
B2
330
88
100
AcDbEntity
  8
3D-GLAZ
100
AcDbVertex
100
AcDbPolyFaceMeshVertex
 10
909.7754516601561
 20
434.4984741210937
 30
0.0000000000041141
 70
   192
  0
VERTEX
  5
B3
330
88
100
AcDbEntity
  8
3D-GLAZ
100
AcDbVertex
100
AcDbPolyFaceMeshVertex
 10
910.8599853515624
 20
432.6200866699218
 30
0.0000000000040882
 70
   192
  0
VERTEX
  5
B4
330
88
100
AcDbEntity
  8
3D-GLAZ
100
AcDbVertex
100
AcDbPolyFaceMeshVertex
 10
911.5301513671874
 20
430.5572662353515
 30
0.0000000000040596
 70
   192
  0
VERTEX
  5
B5
330
88
100
AcDbEntity
  8
3D-GLAZ
100
AcDbVertex
100
AcDbPolyFaceMeshVertex
 10
911.7569274902343
 20
428.4001922607421
 30
0.0000000000040298
 70
   192
  0
VERTEX
  5
B6
330
88
100
AcDbEntity
  8
3D-GLAZ
100
AcDbVertex
100
AcDbPolyFaceMeshVertex
 10
911.5301513671874
 20
426.2431182861328
 30
0.000000000004
 70
   192
  0
VERTEX
  5
B7
330
88
100
AcDbEntity
  8
3D-GLAZ
100
AcDbVertex
100
AcDbPolyFaceMeshVertex
 10
910.8599853515624
 20
424.1802978515624
 30
0.0000000000039714
 70
   192
  0
VERTEX
  5
B8
330
88
100
AcDbEntity
  8
3D-GLAZ
100
AcDbVertex
100
AcDbPolyFaceMeshVertex
 10
909.7754516601561
 20
422.3019104003906
 30
0.0000000000039455
 70
   192
  0
VERTEX
  5
B9
330
88
100
AcDbEntity
  8
3D-GLAZ
100
AcDbVertex
100
AcDbPolyFaceMeshVertex
 10
908.3241577148436
 20
420.6900787353515
 30
0.0000000000039232
 70
   192
  0
VERTEX
  5
BA
330
88
100
AcDbEntity
  8
3D-GLAZ
100
AcDbVertex
100
AcDbPolyFaceMeshVertex
 10
906.569366455078
 20
419.4152069091796
 30
0.0000000000039056
 70
   192
  0
VERTEX
  5
BB
330
88
100
AcDbEntity
  8
3D-GLAZ
100
AcDbVertex
100
AcDbPolyFaceMeshVertex
 10
904.5879821777343
 20
418.5330047607421
 30
0.0000000000038934
 70
   192
  0
VERTEX
  5
BC
330
88
100
AcDbEntity
  8
3D-GLAZ
100
AcDbVertex
100
AcDbPolyFaceMeshVertex
 10
902.4664306640624
 20
418.0820159912109
 30
0.0000000000038871
 70
   192
  0
VERTEX
  5
BD
330
88
100
AcDbEntity
  8
3D-GLAZ
100
AcDbVertex
100
AcDbPolyFaceMeshVertex
 10
900.2974548339843
 20
418.0820159912109
 30
0.0000000000038871
 70
   192
  0
VERTEX
  5
BE
330
88
100
AcDbEntity
  8
3D-GLAZ
100
AcDbVertex
100
AcDbPolyFaceMeshVertex
 10
898.175811767578
 20
418.5330047607421
 30
0.0000000000038934
 70
   192
  0
VERTEX
  5
BF
330
88
100
AcDbEntity
  8
3D-GLAZ
100
AcDbVertex
100
AcDbPolyFaceMeshVertex
 10
896.1944274902343
 20
419.4152069091796
 30
0.0000000000039056
 70
   192
  0
VERTEX
  5
C0
330
88
100
AcDbEntity
  8
3D-GLAZ
100
AcDbVertex
100
AcDbPolyFaceMeshVertex
 10
894.4396362304686
 20
420.6900787353515
 30
0.0000000000039232
 70
   192
  0
VERTEX
  5
C1
330
88
100
AcDbEntity
  8
3D-GLAZ
100
AcDbVertex
100
AcDbPolyFaceMeshVertex
 10
892.9883422851561
 20
422.3019104003906
 30
0.0000000000039455
 70
   192
  0
VERTEX
  5
C2
330
88
100
AcDbEntity
  8
3D-GLAZ
100
AcDbVertex
100
AcDbPolyFaceMeshVertex
 10
891.9039001464843
 20
424.1802978515624
 30
0.0000000000039714
 70
   192
  0
VERTEX
  5
C3
330
88
100
AcDbEntity
  8
3D-GLAZ
100
AcDbVertex
100
AcDbPolyFaceMeshVertex
 10
891.2336425781249
 20
426.2431182861328
 30
0.000000000004
 70
   192
  0
VERTEX
  5
C4
330
88
100
AcDbEntity
  8
3D-GLAZ
100
AcDbVertex
100
AcDbPolyFaceMeshVertex
 10
891.006866455078
 20
428.4001922607421
 30
0.0000000000040298
 70
   192
  0
VERTEX
  5
C5
330
88
100
AcDbEntity
  8
3D-GLAZ
100
AcDbFaceRecord
 10
0.0
 20
0.0
 30
0.0
 70
   128
 71
    11
 72
   -10
 73
    35
 74
   -34
  0
VERTEX
  5
C6
330
88
100
AcDbEntity
  8
3D-GLAZ
100
AcDbFaceRecord
 10
0.0
 20
0.0
 30
0.0
 70
   128
 71
    36
 72
   -35
 73
    10
 74
    -9
  0
VERTEX
  5
C7
330
88
100
AcDbEntity
  8
3D-GLAZ
100
AcDbFaceRecord
 10
0.0
 20
0.0
 30
0.0
 70
   128
 71
    38
 72
   -37
 73
     8
 74
    -7
  0
VERTEX
  5
C8
330
88
100
AcDbEntity
  8
3D-GLAZ
100
AcDbFaceRecord
 10
0.0
 20
0.0
 30
0.0
 70
   128
 71
     9
 72
    -8
 73
    37
 74
   -36
  0
VERTEX
  5
C9
330
88
100
AcDbEntity
  8
3D-GLAZ
100
AcDbFaceRecord
 10
0.0
 20
0.0
 30
0.0
 70
   128
 71
   -31
 72
    14
 73
   -13
 74
    32
  0
VERTEX
  5
CA
330
88
100
AcDbEntity
  8
3D-GLAZ
100
AcDbFaceRecord
 10
0.0
 20
0.0
 30
0.0
 70
   128
 71
   -14
 72
    31
 73
   -60
 74
    15
  0
VERTEX
  5
CB
330
88
100
AcDbEntity
  8
3D-GLAZ
100
AcDbFaceRecord
 10
0.0
 20
0.0
 30
0.0
 70
   128
 71
    34
 72
   -33
 73
    12
 74
   -11
  0
VERTEX
  5
CC
330
88
100
AcDbEntity
  8
3D-GLAZ
100
AcDbFaceRecord
 10
0.0
 20
0.0
 30
0.0
 70
   128
 71
   -12
 72
    33
 73
   -32
 74
    13
  0
VERTEX
  5
CD
330
88
100
AcDbEntity
  8
3D-GLAZ
100
AcDbFaceRecord
 10
0.0
 20
0.0
 30
0.0
 70
   128
 71
    39
 72
   -38
 73
     7
 74
    -6
  0
VERTEX
  5
CE
330
88
100
AcDbEntity
  8
3D-GLAZ
100
AcDbFaceRecord
 10
0.0
 20
0.0
 30
0.0
 70
   128
 71
     6
 72
    -5
 73
    40
 74
   -39
  0
VERTEX
  5
CF
330
88
100
AcDbEntity
  8
3D-GLAZ
100
AcDbFaceRecord
 10
0.0
 20
0.0
 30
0.0
 70
   128
 71
     5
 72
    -4
 73
    41
 74
   -40
  0
VERTEX
  5
D0
330
88
100
AcDbEntity
  8
3D-GLAZ
100
AcDbFaceRecord
 10
0.0
 20
0.0
 30
0.0
 70
   128
 71
    42
 72
   -41
 73
     4
 74
    -3
  0
VERTEX
  5
D1
330
88
100
AcDbEntity
  8
3D-GLAZ
100
AcDbFaceRecord
 10
0.0
 20
0.0
 30
0.0
 70
   128
 71
    43
 72
   -42
 73
     3
 74
    -2
  0
VERTEX
  5
D2
330
88
100
AcDbEntity
  8
3D-GLAZ
100
AcDbFaceRecord
 10
0.0
 20
0.0
 30
0.0
 70
   128
 71
     2
 72
    -1
 73
    44
 74
   -43
  0
VERTEX
  5
D3
330
88
100
AcDbEntity
  8
3D-GLAZ
100
AcDbFaceRecord
 10
0.0
 20
0.0
 30
0.0
 70
   128
 71
    45
 72
   -44
 73
     1
 74
   -30
  0
VERTEX
  5
D4
330
88
100
AcDbEntity
  8
3D-GLAZ
100
AcDbFaceRecord
 10
0.0
 20
0.0
 30
0.0
 70
   128
 71
   -59
 72
    16
 73
   -15
 74
    60
  0
VERTEX
  5
D5
330
88
100
AcDbEntity
  8
3D-GLAZ
100
AcDbFaceRecord
 10
0.0
 20
0.0
 30
0.0
 70
   128
 71
   -16
 72
    59
 73
   -58
 74
    17
  0
VERTEX
  5
D6
330
88
100
AcDbEntity
  8
3D-GLAZ
100
AcDbFaceRecord
 10
0.0
 20
0.0
 30
0.0
 70
   128
 71
   -17
 72
    58
 73
   -57
 74
    18
  0
VERTEX
  5
D7
330
88
100
AcDbEntity
  8
3D-GLAZ
100
AcDbFaceRecord
 10
0.0
 20
0.0
 30
0.0
 70
   128
 71
   -18
 72
    57
 73
   -56
 74
    19
  0
VERTEX
  5
D8
330
88
100
AcDbEntity
  8
3D-GLAZ
100
AcDbFaceRecord
 10
0.0
 20
0.0
 30
0.0
 70
   128
 71
   -19
 72
    56
 73
   -55
 74
    20
  0
VERTEX
  5
D9
330
88
100
AcDbEntity
  8
3D-GLAZ
100
AcDbFaceRecord
 10
0.0
 20
0.0
 30
0.0
 70
   128
 71
   -20
 72
    55
 73
   -54
 74
    21
  0
VERTEX
  5
DA
330
88
100
AcDbEntity
  8
3D-GLAZ
100
AcDbFaceRecord
 10
0.0
 20
0.0
 30
0.0
 70
   128
 71
   -21
 72
    54
 73
   -53
 74
    22
  0
VERTEX
  5
DB
330
88
100
AcDbEntity
  8
3D-GLAZ
100
AcDbFaceRecord
 10
0.0
 20
0.0
 30
0.0
 70
   128
 71
   -22
 72
    53
 73
   -52
 74
    23
  0
VERTEX
  5
DC
330
88
100
AcDbEntity
  8
3D-GLAZ
100
AcDbFaceRecord
 10
0.0
 20
0.0
 30
0.0
 70
   128
 71
   -27
 72
    48
 73
   -47
 74
    28
  0
VERTEX
  5
DD
330
88
100
AcDbEntity
  8
3D-GLAZ
100
AcDbFaceRecord
 10
0.0
 20
0.0
 30
0.0
 70
   128
 71
   -48
 72
    27
 73
   -26
 74
    49
  0
VERTEX
  5
DE
330
88
100
AcDbEntity
  8
3D-GLAZ
100
AcDbFaceRecord
 10
0.0
 20
0.0
 30
0.0
 70
   128
 71
    30
 72
   -29
 73
    46
 74
   -45
  0
VERTEX
  5
DF
330
88
100
AcDbEntity
  8
3D-GLAZ
100
AcDbFaceRecord
 10
0.0
 20
0.0
 30
0.0
 70
   128
 71
    47
 72
   -46
 73
    29
 74
   -28
  0
VERTEX
  5
E0
330
88
100
AcDbEntity
  8
3D-GLAZ
100
AcDbFaceRecord
 10
0.0
 20
0.0
 30
0.0
 70
   128
 71
   -24
 72
    51
 73
   -50
 74
    25
  0
VERTEX
  5
E1
330
88
100
AcDbEntity
  8
3D-GLAZ
100
AcDbFaceRecord
 10
0.0
 20
0.0
 30
0.0
 70
   128
 71
   -51
 72
    24
 73
   -23
 74
    52
  0
VERTEX
  5
E2
330
88
100
AcDbEntity
  8
3D-GLAZ
100
AcDbFaceRecord
 10
0.0
 20
0.0
 30
0.0
 70
   128
 71
   -49
 72
    26
 73
   -25
 74
    50
  0
SEQEND
  5
E3
330
88
100
AcDbEntity
  8
3D-GLAZ
  0
POLYLINE
  5
E4
330
75
100
AcDbEntity
  8
3D-GLAZ
100
AcDbPolyFaceMesh
 66
     1
 10
0.0
 20
0.0
 30
0.0
 70
    64
 71
    32
 72
    15
1001
REVIT
1002
{
1070
     1
1000
8352
1002
}
1002
{
1070
     4
1000
10191
1002
}
1002
{
1070
     2
1000
-2000014
1002
}
  0
VERTEX
  5
E5
330
E4
100
AcDbEntity
  8
3D-GLAZ
100
AcDbVertex
100
AcDbPolyFaceMeshVertex
 10
890.8818969726561
 20
428.4001922607421
 30
0.0000000000040298
 70
   192
  0
VERTEX
  5
E6
330
E4
100
AcDbEntity
  8
3D-GLAZ
100
AcDbVertex
100
AcDbPolyFaceMeshVertex
 10
891.1113281249999
 20
426.2171173095703
 30
0.0000000000039988
 70
   192
  0
VERTEX
  5
E7
330
E4
100
AcDbEntity
  8
3D-GLAZ
100
AcDbVertex
100
AcDbPolyFaceMeshVertex
 10
891.7896423339843
 20
424.1294860839843
 30
0.0000000000039691
 70
   192
  0
VERTEX
  5
E8
330
E4
100
AcDbEntity
  8
3D-GLAZ
100
AcDbVertex
100
AcDbPolyFaceMeshVertex
 10
892.8872680664061
 20
422.2284393310546
 30
0.0000000000039421
 70
   192
  0
VERTEX
  5
E9
330
E4
100
AcDbEntity
  8
3D-GLAZ
100
AcDbVertex
100
AcDbPolyFaceMeshVertex
 10
894.3560485839843
 20
420.5971984863281
 30
0.0000000000039189
 70
   192
  0
VERTEX
  5
EA
330
E4
100
AcDbEntity
  8
3D-GLAZ
100
AcDbVertex
100
AcDbPolyFaceMeshVertex
 10
896.1318969726561
 20
419.3069458007812
 30
0.0000000000039006
 70
   192
  0
VERTEX
  5
EB
330
E4
100
AcDbEntity
  8
3D-GLAZ
100
AcDbVertex
100
AcDbPolyFaceMeshVertex
 10
898.1372680664061
 20
418.4141235351562
 30
0.0000000000038879
 70
   192
  0
VERTEX
  5
EC
330
E4
100
AcDbEntity
  8
3D-GLAZ
100
AcDbVertex
100
AcDbPolyFaceMeshVertex
 10
900.2843627929686
 20
417.9577331542968
 30
0.0000000000038814
 70
   192
  0
VERTEX
  5
ED
330
E4
100
AcDbEntity
  8
3D-GLAZ
100
AcDbVertex
100
AcDbPolyFaceMeshVertex
 10
902.4794311523436
 20
417.9577331542968
 30
0.0000000000038814
 70
   192
  0
VERTEX
  5
EE
330
E4
100
AcDbEntity
  8
3D-GLAZ
100
AcDbVertex
100
AcDbPolyFaceMeshVertex
 10
904.6266174316405
 20
418.4141235351562
 30
0.0000000000038879
 70
   192
  0
VERTEX
  5
EF
330
E4
100
AcDbEntity
  8
3D-GLAZ
100
AcDbVertex
100
AcDbPolyFaceMeshVertex
 10
906.6318969726561
 20
419.3069458007812
 30
0.0000000000039006
 70
   192
  0
VERTEX
  5
F0
330
E4
100
AcDbEntity
  8
3D-GLAZ
100
AcDbVertex
100
AcDbPolyFaceMeshVertex
 10
908.407745361328
 20
420.5971984863281
 30
0.0000000000039189
 70
   192
  0
VERTEX
  5
F1
330
E4
100
AcDbEntity
  8
3D-GLAZ
100
AcDbVertex
100
AcDbPolyFaceMeshVertex
 10
909.8766174316405
 20
422.2284393310546
 30
0.0000000000039421
 70
   192
  0
VERTEX
  5
F2
330
E4
100
AcDbEntity
  8
3D-GLAZ
100
AcDbVertex
100
AcDbPolyFaceMeshVertex
 10
910.974151611328
 20
424.1294860839843
 30
0.0000000000039691
 70
   192
  0
VERTEX
  5
F3
330
E4
100
AcDbEntity
  8
3D-GLAZ
100
AcDbVertex
100
AcDbPolyFaceMeshVertex
 10
911.6524658203124
 20
426.2171173095703
 30
0.0000000000039988
 70
   192
  0
VERTEX
  5
F4
330
E4
100
AcDbEntity
  8
3D-GLAZ
100
AcDbVertex
100
AcDbPolyFaceMeshVertex
 10
911.8818969726561
 20
428.4001922607421
 30
0.0000000000040298
 70
   192
  0
VERTEX
  5
F5
330
E4
100
AcDbEntity
  8
3D-GLAZ
100
AcDbVertex
100
AcDbPolyFaceMeshVertex
 10
911.8818969726561
 20
428.4001922607421
 30
21.42950105667114
 70
   192
  0
VERTEX
  5
F6
330
E4
100
AcDbEntity
  8
3D-GLAZ
100
AcDbVertex
100
AcDbPolyFaceMeshVertex
 10
911.6524658203124
 20
426.2171173095703
 30
21.48567295074463
 70
   192
  0
VERTEX
  5
F7
330
E4
100
AcDbEntity
  8
3D-GLAZ
100
AcDbVertex
100
AcDbPolyFaceMeshVertex
 10
910.974151611328
 20
424.1294860839843
 30
21.65173244476318
 70
   192
  0
VERTEX
  5
F8
330
E4
100
AcDbEntity
  8
3D-GLAZ
100
AcDbVertex
100
AcDbPolyFaceMeshVertex
 10
909.8766174316405
 20
422.2284393310546
 30
21.92042255401611
 70
   192
  0
VERTEX
  5
F9
330
E4
100
AcDbEntity
  8
3D-GLAZ
100
AcDbVertex
100
AcDbPolyFaceMeshVertex
 10
908.407745361328
 20
420.5971984863281
 30
22.28000020980835
 70
   192
  0
VERTEX
  5
FA
330
E4
100
AcDbEntity
  8
3D-GLAZ
100
AcDbVertex
100
AcDbPolyFaceMeshVertex
 10
906.6318969726561
 20
419.3069458007812
 30
22.71474981307983
 70
   192
  0
VERTEX
  5
FB
330
E4
100
AcDbEntity
  8
3D-GLAZ
100
AcDbVertex
100
AcDbPolyFaceMeshVertex
 10
904.6266174316405
 20
418.4141235351562
 30
23.2056713104248
 70
   192
  0
VERTEX
  5
FC
330
E4
100
AcDbEntity
  8
3D-GLAZ
100
AcDbVertex
100
AcDbPolyFaceMeshVertex
 10
902.4794311523436
 20
417.9577331542968
 30
23.73130989074707
 70
   192
  0
VERTEX
  5
FD
330
E4
100
AcDbEntity
  8
3D-GLAZ
100
AcDbVertex
100
AcDbPolyFaceMeshVertex
 10
900.2843627929686
 20
417.9577331542968
 30
24.26869010925293
 70
   192
  0
VERTEX
  5
FE
330
E4
100
AcDbEntity
  8
3D-GLAZ
100
AcDbVertex
100
AcDbPolyFaceMeshVertex
 10
898.1372680664061
 20
418.4141235351562
 30
24.79432868957519
 70
   192
  0
VERTEX
  5
FF
330
E4
100
AcDbEntity
  8
3D-GLAZ
100
AcDbVertex
100
AcDbPolyFaceMeshVertex
 10
896.1318969726561
 20
419.3069458007812
 30
25.28524875640869
 70
   192
  0
VERTEX
  5
100
330
E4
100
AcDbEntity
  8
3D-GLAZ
100
AcDbVertex
100
AcDbPolyFaceMeshVertex
 10
894.3560485839843
 20
420.5971984863281
 30
25.71999835968017
 70
   192
  0
VERTEX
  5
101
330
E4
100
AcDbEntity
  8
3D-GLAZ
100
AcDbVertex
100
AcDbPolyFaceMeshVertex
 10
892.8872680664061
 20
422.2284393310546
 30
26.07957744598388
 70
   192
  0
VERTEX
  5
102
330
E4
100
AcDbEntity
  8
3D-GLAZ
100
AcDbVertex
100
AcDbPolyFaceMeshVertex
 10
891.7896423339843
 20
424.1294860839843
 30
26.34826755523681
 70
   192
  0
VERTEX
  5
103
330
E4
100
AcDbEntity
  8
3D-GLAZ
100
AcDbVertex
100
AcDbPolyFaceMeshVertex
 10
891.1113281249999
 20
426.2171173095703
 30
26.51432704925537
 70
   192
  0
VERTEX
  5
104
330
E4
100
AcDbEntity
  8
3D-GLAZ
100
AcDbVertex
100
AcDbPolyFaceMeshVertex
 10
890.8818969726561
 20
428.4001922607421
 30
26.57050037384033
 70
   192
  0
VERTEX
  5
105
330
E4
100
AcDbEntity
  8
3D-GLAZ
100
AcDbFaceRecord
 10
0.0
 20
0.0
 30
0.0
 70
   128
 71
    19
 72
   -20
 73
    13
 74
   -14
  0
VERTEX
  5
106
330
E4
100
AcDbEntity
  8
3D-GLAZ
100
AcDbFaceRecord
 10
0.0
 20
0.0
 30
0.0
 70
   128
 71
    17
 72
   -18
 73
    15
 74
    16
  0
VERTEX
  5
107
330
E4
100
AcDbEntity
  8
3D-GLAZ
100
AcDbFaceRecord
 10
0.0
 20
0.0
 30
0.0
 70
   128
 71
    18
 72
   -19
 73
    14
 74
   -15
  0
VERTEX
  5
108
330
E4
100
AcDbEntity
  8
3D-GLAZ
100
AcDbFaceRecord
 10
0.0
 20
0.0
 30
0.0
 70
   128
 71
    23
 72
   -24
 73
     9
 74
   -10
  0
VERTEX
  5
109
330
E4
100
AcDbEntity
  8
3D-GLAZ
100
AcDbFaceRecord
 10
0.0
 20
0.0
 30
0.0
 70
   128
 71
    21
 72
   -22
 73
    11
 74
   -12
  0
VERTEX
  5
10A
330
E4
100
AcDbEntity
  8
3D-GLAZ
100
AcDbFaceRecord
 10
0.0
 20
0.0
 30
0.0
 70
   128
 71
    22
 72
   -23
 73
    10
 74
   -11
  0
VERTEX
  5
10B
330
E4
100
AcDbEntity
  8
3D-GLAZ
100
AcDbFaceRecord
 10
0.0
 20
0.0
 30
0.0
 70
   128
 71
    20
 72
   -21
 73
    12
 74
   -13
  0
VERTEX
  5
10C
330
E4
100
AcDbEntity
  8
3D-GLAZ
100
AcDbFaceRecord
 10
0.0
 20
0.0
 30
0.0
 70
   128
 71
     8
 72
    -9
 73
    24
 74
   -25
  0
VERTEX
  5
10D
330
E4
100
AcDbEntity
  8
3D-GLAZ
100
AcDbFaceRecord
 10
0.0
 20
0.0
 30
0.0
 70
   128
 71
    26
 72
   -27
 73
     6
 74
    -7
  0
VERTEX
  5
10E
330
E4
100
AcDbEntity
  8
3D-GLAZ
100
AcDbFaceRecord
 10
0.0
 20
0.0
 30
0.0
 70
   128
 71
    25
 72
   -26
 73
     7
 74
    -8
  0
VERTEX
  5
10F
330
E4
100
AcDbEntity
  8
3D-GLAZ
100
AcDbFaceRecord
 10
0.0
 20
0.0
 30
0.0
 70
   128
 71
    27
 72
   -28
 73
     5
 74
    -6
  0
VERTEX
  5
110
330
E4
100
AcDbEntity
  8
3D-GLAZ
100
AcDbFaceRecord
 10
0.0
 20
0.0
 30
0.0
 70
   128
 71
    30
 72
   -31
 73
     2
 74
    -3
  0
VERTEX
  5
111
330
E4
100
AcDbEntity
  8
3D-GLAZ
100
AcDbFaceRecord
 10
0.0
 20
0.0
 30
0.0
 70
   128
 71
    29
 72
   -30
 73
     3
 74
    -4
  0
VERTEX
  5
112
330
E4
100
AcDbEntity
  8
3D-GLAZ
100
AcDbFaceRecord
 10
0.0
 20
0.0
 30
0.0
 70
   128
 71
    28
 72
   -29
 73
     4
 74
    -5
  0
VERTEX
  5
113
330
E4
100
AcDbEntity
  8
3D-GLAZ
100
AcDbFaceRecord
 10
0.0
 20
0.0
 30
0.0
 70
   128
 71
    31
 72
    32
 73
     1
 74
    -2
  0
SEQEND
  5
114
330
E4
100
AcDbEntity
  8
3D-GLAZ
  0
POLYLINE
  5
115
330
75
100
AcDbEntity
  8
3D-GLAZ
100
AcDbPolyFaceMesh
 66
     1
 10
0.0
 20
0.0
 30
0.0
 70
    64
 71
    32
 72
    15
1001
REVIT
1002
{
1070
     1
1000
8352
1002
}
1002
{
1070
     4
1000
10191
1002
}
1002
{
1070
     2
1000
-2000014
1002
}
  0
VERTEX
  5
116
330
115
100
AcDbEntity
  8
3D-GLAZ
100
AcDbVertex
100
AcDbPolyFaceMeshVertex
 10
911.8818969726561
 20
428.4001922607421
 30
0.0000000000040298
 70
   192
  0
VERTEX
  5
117
330
115
100
AcDbEntity
  8
3D-GLAZ
100
AcDbVertex
100
AcDbPolyFaceMeshVertex
 10
911.6524658203124
 20
430.583267211914
 30
0.0000000000040609
 70
   192
  0
VERTEX
  5
118
330
115
100
AcDbEntity
  8
3D-GLAZ
100
AcDbVertex
100
AcDbPolyFaceMeshVertex
 10
910.974151611328
 20
432.6709442138671
 30
0.0000000000040905
 70
   192
  0
VERTEX
  5
119
330
115
100
AcDbEntity
  8
3D-GLAZ
100
AcDbVertex
100
AcDbPolyFaceMeshVertex
 10
909.8766174316405
 20
434.5719451904296
 30
0.0000000000041175
 70
   192
  0
VERTEX
  5
11A
330
115
100
AcDbEntity
  8
3D-GLAZ
100
AcDbVertex
100
AcDbPolyFaceMeshVertex
 10
908.407745361328
 20
436.2032318115234
 30
0.0000000000041407
 70
   192
  0
VERTEX
  5
11B
330
115
100
AcDbEntity
  8
3D-GLAZ
100
AcDbVertex
100
AcDbPolyFaceMeshVertex
 10
906.6318969726561
 20
437.4934844970703
 30
0.0000000000041591
 70
   192
  0
VERTEX
  5
11C
330
115
100
AcDbEntity
  8
3D-GLAZ
100
AcDbVertex
100
AcDbPolyFaceMeshVertex
 10
904.6266174316405
 20
438.3863067626953
 30
0.0000000000041717
 70
   192
  0
VERTEX
  5
11D
330
115
100
AcDbEntity
  8
3D-GLAZ
100
AcDbVertex
100
AcDbPolyFaceMeshVertex
 10
902.4794311523436
 20
438.8426971435546
 30
0.0000000000041782
 70
   192
  0
VERTEX
  5
11E
330
115
100
AcDbEntity
  8
3D-GLAZ
100
AcDbVertex
100
AcDbPolyFaceMeshVertex
 10
900.2843627929686
 20
438.8426971435546
 30
0.0000000000041782
 70
   192
  0
VERTEX
  5
11F
330
115
100
AcDbEntity
  8
3D-GLAZ
100
AcDbVertex
100
AcDbPolyFaceMeshVertex
 10
898.1372680664061
 20
438.3863067626953
 30
0.0000000000041717
 70
   192
  0
VERTEX
  5
120
330
115
100
AcDbEntity
  8
3D-GLAZ
100
AcDbVertex
100
AcDbPolyFaceMeshVertex
 10
896.1318969726561
 20
437.4934844970703
 30
0.0000000000041591
 70
   192
  0
VERTEX
  5
121
330
115
100
AcDbEntity
  8
3D-GLAZ
100
AcDbVertex
100
AcDbPolyFaceMeshVertex
 10
894.3560485839843
 20
436.2032318115234
 30
0.0000000000041407
 70
   192
  0
VERTEX
  5
122
330
115
100
AcDbEntity
  8
3D-GLAZ
100
AcDbVertex
100
AcDbPolyFaceMeshVertex
 10
892.8872680664061
 20
434.5719451904296
 30
0.0000000000041175
 70
   192
  0
VERTEX
  5
123
330
115
100
AcDbEntity
  8
3D-GLAZ
100
AcDbVertex
100
AcDbPolyFaceMeshVertex
 10
891.7896423339843
 20
432.6709442138671
 30
0.0000000000040905
 70
   192
  0
VERTEX
  5
124
330
115
100
AcDbEntity
  8
3D-GLAZ
100
AcDbVertex
100
AcDbPolyFaceMeshVertex
 10
891.1113281249999
 20
430.583267211914
 30
0.0000000000040609
 70
   192
  0
VERTEX
  5
125
330
115
100
AcDbEntity
  8
3D-GLAZ
100
AcDbVertex
100
AcDbPolyFaceMeshVertex
 10
890.8818969726561
 20
428.4001922607421
 30
0.0000000000040298
 70
   192
  0
VERTEX
  5
126
330
115
100
AcDbEntity
  8
3D-GLAZ
100
AcDbVertex
100
AcDbPolyFaceMeshVertex
 10
890.8818969726561
 20
428.4001922607421
 30
26.57050037384033
 70
   192
  0
VERTEX
  5
127
330
115
100
AcDbEntity
  8
3D-GLAZ
100
AcDbVertex
100
AcDbPolyFaceMeshVertex
 10
891.1113281249999
 20
430.583267211914
 30
26.51432704925537
 70
   192
  0
VERTEX
  5
128
330
115
100
AcDbEntity
  8
3D-GLAZ
100
AcDbVertex
100
AcDbPolyFaceMeshVertex
 10
891.7896423339843
 20
432.6709442138671
 30
26.34826755523681
 70
   192
  0
VERTEX
  5
129
330
115
100
AcDbEntity
  8
3D-GLAZ
100
AcDbVertex
100
AcDbPolyFaceMeshVertex
 10
892.8872680664061
 20
434.5719451904296
 30
26.07957744598388
 70
   192
  0
VERTEX
  5
12A
330
115
100
AcDbEntity
  8
3D-GLAZ
100
AcDbVertex
100
AcDbPolyFaceMeshVertex
 10
894.3560485839843
 20
436.2032318115234
 30
25.71999835968017
 70
   192
  0
VERTEX
  5
12B
330
115
100
AcDbEntity
  8
3D-GLAZ
100
AcDbVertex
100
AcDbPolyFaceMeshVertex
 10
896.1318969726561
 20
437.4934844970703
 30
25.28524875640869
 70
   192
  0
VERTEX
  5
12C
330
115
100
AcDbEntity
  8
3D-GLAZ
100
AcDbVertex
100
AcDbPolyFaceMeshVertex
 10
898.1372680664061
 20
438.3863067626953
 30
24.79432868957519
 70
   192
  0
VERTEX
  5
12D
330
115
100
AcDbEntity
  8
3D-GLAZ
100
AcDbVertex
100
AcDbPolyFaceMeshVertex
 10
900.2843627929686
 20
438.8426971435546
 30
24.26869010925293
 70
   192
  0
VERTEX
  5
12E
330
115
100
AcDbEntity
  8
3D-GLAZ
100
AcDbVertex
100
AcDbPolyFaceMeshVertex
 10
902.4794311523436
 20
438.8426971435546
 30
23.73130989074707
 70
   192
  0
VERTEX
  5
12F
330
115
100
AcDbEntity
  8
3D-GLAZ
100
AcDbVertex
100
AcDbPolyFaceMeshVertex
 10
904.6266174316405
 20
438.3863067626953
 30
23.2056713104248
 70
   192
  0
VERTEX
  5
130
330
115
100
AcDbEntity
  8
3D-GLAZ
100
AcDbVertex
100
AcDbPolyFaceMeshVertex
 10
906.6318969726561
 20
437.4934844970703
 30
22.71474981307983
 70
   192
  0
VERTEX
  5
131
330
115
100
AcDbEntity
  8
3D-GLAZ
100
AcDbVertex
100
AcDbPolyFaceMeshVertex
 10
908.407745361328
 20
436.2032318115234
 30
22.28000020980835
 70
   192
  0
VERTEX
  5
132
330
115
100
AcDbEntity
  8
3D-GLAZ
100
AcDbVertex
100
AcDbPolyFaceMeshVertex
 10
909.8766174316405
 20
434.5719451904296
 30
21.92042255401611
 70
   192
  0
VERTEX
  5
133
330
115
100
AcDbEntity
  8
3D-GLAZ
100
AcDbVertex
100
AcDbPolyFaceMeshVertex
 10
910.974151611328
 20
432.6709442138671
 30
21.65173244476318
 70
   192
  0
VERTEX
  5
134
330
115
100
AcDbEntity
  8
3D-GLAZ
100
AcDbVertex
100
AcDbPolyFaceMeshVertex
 10
911.6524658203124
 20
430.583267211914
 30
21.48567295074463
 70
   192
  0
VERTEX
  5
135
330
115
100
AcDbEntity
  8
3D-GLAZ
100
AcDbVertex
100
AcDbPolyFaceMeshVertex
 10
911.8818969726561
 20
428.4001922607421
 30
21.42950105667114
 70
   192
  0
VERTEX
  5
136
330
115
100
AcDbEntity
  8
3D-GLAZ
100
AcDbFaceRecord
 10
0.0
 20
0.0
 30
0.0
 70
   128
 71
    16
 72
    17
 73
   -18
 74
    15
  0
VERTEX
  5
137
330
115
100
AcDbEntity
  8
3D-GLAZ
100
AcDbFaceRecord
 10
0.0
 20
0.0
 30
0.0
 70
   128
 71
   -15
 72
    18
 73
   -19
 74
    14
  0
VERTEX
  5
138
330
115
100
AcDbEntity
  8
3D-GLAZ
100
AcDbFaceRecord
 10
0.0
 20
0.0
 30
0.0
 70
   128
 71
   -14
 72
    19
 73
   -20
 74
    13
  0
VERTEX
  5
139
330
115
100
AcDbEntity
  8
3D-GLAZ
100
AcDbFaceRecord
 10
0.0
 20
0.0
 30
0.0
 70
   128
 71
   -12
 72
    21
 73
   -22
 74
    11
  0
VERTEX
  5
13A
330
115
100
AcDbEntity
  8
3D-GLAZ
100
AcDbFaceRecord
 10
0.0
 20
0.0
 30
0.0
 70
   128
 71
   -11
 72
    22
 73
   -23
 74
    10
  0
VERTEX
  5
13B
330
115
100
AcDbEntity
  8
3D-GLAZ
100
AcDbFaceRecord
 10
0.0
 20
0.0
 30
0.0
 70
   128
 71
   -13
 72
    20
 73
   -21
 74
    12
  0
VERTEX
  5
13C
330
115
100
AcDbEntity
  8
3D-GLAZ
100
AcDbFaceRecord
 10
0.0
 20
0.0
 30
0.0
 70
   128
 71
   -10
 72
    23
 73
   -24
 74
     9
  0
VERTEX
  5
13D
330
115
100
AcDbEntity
  8
3D-GLAZ
100
AcDbFaceRecord
 10
0.0
 20
0.0
 30
0.0
 70
   128
 71
    -9
 72
    24
 73
   -25
 74
     8
  0
VERTEX
  5
13E
330
115
100
AcDbEntity
  8
3D-GLAZ
100
AcDbFaceRecord
 10
0.0
 20
0.0
 30
0.0
 70
   128
 71
    -8
 72
    25
 73
   -26
 74
     7
  0
VERTEX
  5
13F
330
115
100
AcDbEntity
  8
3D-GLAZ
100
AcDbFaceRecord
 10
0.0
 20
0.0
 30
0.0
 70
   128
 71
    -6
 72
    27
 73
   -28
 74
     5
  0
VERTEX
  5
140
330
115
100
AcDbEntity
  8
3D-GLAZ
100
AcDbFaceRecord
 10
0.0
 20
0.0
 30
0.0
 70
   128
 71
    -7
 72
    26
 73
   -27
 74
     6
  0
VERTEX
  5
141
330
115
100
AcDbEntity
  8
3D-GLAZ
100
AcDbFaceRecord
 10
0.0
 20
0.0
 30
0.0
 70
   128
 71
    -4
 72
    29
 73
   -30
 74
     3
  0
VERTEX
  5
142
330
115
100
AcDbEntity
  8
3D-GLAZ
100
AcDbFaceRecord
 10
0.0
 20
0.0
 30
0.0
 70
   128
 71
    -2
 72
    31
 73
    32
 74
     1
  0
VERTEX
  5
143
330
115
100
AcDbEntity
  8
3D-GLAZ
100
AcDbFaceRecord
 10
0.0
 20
0.0
 30
0.0
 70
   128
 71
    -3
 72
    30
 73
   -31
 74
     2
  0
VERTEX
  5
144
330
115
100
AcDbEntity
  8
3D-GLAZ
100
AcDbFaceRecord
 10
0.0
 20
0.0
 30
0.0
 70
   128
 71
    -5
 72
    28
 73
   -29
 74
     4
  0
SEQEND
  5
145
330
115
100
AcDbEntity
  8
3D-GLAZ
  0
POLYLINE
  5
146
330
75
100
AcDbEntity
  8
3D-GLAZ
100
AcDbPolyFaceMesh
 66
     1
 10
0.0
 20
0.0
 30
0.0
 70
    64
 71
    32
 72
    15
1001
REVIT
1002
{
1070
     1
1000
8352
1002
}
1002
{
1070
     4
1000
10191
1002
}
1002
{
1070
     2
1000
-2000014
1002
}
  0
VERTEX
  5
147
330
146
100
AcDbEntity
  8
3D-GLAZ
100
AcDbVertex
100
AcDbPolyFaceMeshVertex
 10
911.7569274902343
 20
428.4001922607421
 30
21.46010255813598
 70
   192
  0
VERTEX
  5
148
330
146
100
AcDbEntity
  8
3D-GLAZ
100
AcDbVertex
100
AcDbPolyFaceMeshVertex
 10
911.5301513671874
 20
426.2431182861328
 30
21.51560497283935
 70
   192
  0
VERTEX
  5
149
330
146
100
AcDbEntity
  8
3D-GLAZ
100
AcDbVertex
100
AcDbPolyFaceMeshVertex
 10
910.8599853515624
 20
424.1802978515624
 30
21.6796875
 70
   192
  0
VERTEX
  5
14A
330
146
100
AcDbEntity
  8
3D-GLAZ
100
AcDbVertex
100
AcDbPolyFaceMeshVertex
 10
909.7754516601561
 20
422.3019104003906
 30
21.9451789855957
 70
   192
  0
VERTEX
  5
14B
330
146
100
AcDbEntity
  8
3D-GLAZ
100
AcDbVertex
100
AcDbPolyFaceMeshVertex
 10
908.3241577148436
 20
420.6900787353515
 30
22.3004765510559
 70
   192
  0
VERTEX
  5
14C
330
146
100
AcDbEntity
  8
3D-GLAZ
100
AcDbVertex
100
AcDbPolyFaceMeshVertex
 10
906.569366455078
 20
419.4152069091796
 30
22.73005056381225
 70
   192
  0
VERTEX
  5
14D
330
146
100
AcDbEntity
  8
3D-GLAZ
100
AcDbVertex
100
AcDbPolyFaceMeshVertex
 10
904.5879821777343
 20
418.5330047607421
 30
23.21512842178344
 70
   192
  0
VERTEX
  5
14E
330
146
100
AcDbEntity
  8
3D-GLAZ
100
AcDbVertex
100
AcDbPolyFaceMeshVertex
 10
902.4664306640624
 20
418.0820159912109
 30
23.73450851440429
 70
   192
  0
VERTEX
  5
14F
330
146
100
AcDbEntity
  8
3D-GLAZ
100
AcDbVertex
100
AcDbPolyFaceMeshVertex
 10
900.2974548339843
 20
418.0820159912109
 30
24.2654914855957
 70
   192
  0
VERTEX
  5
150
330
146
100
AcDbEntity
  8
3D-GLAZ
100
AcDbVertex
100
AcDbPolyFaceMeshVertex
 10
898.175811767578
 20
418.5330047607421
 30
24.78487300872802
 70
   192
  0
VERTEX
  5
151
330
146
100
AcDbEntity
  8
3D-GLAZ
100
AcDbVertex
100
AcDbPolyFaceMeshVertex
 10
896.1944274902343
 20
419.4152069091796
 30
25.26994800567627
 70
   192
  0
VERTEX
  5
152
330
146
100
AcDbEntity
  8
3D-GLAZ
100
AcDbVertex
100
AcDbPolyFaceMeshVertex
 10
894.4396362304686
 20
420.6900787353515
 30
25.69952487945556
 70
   192
  0
VERTEX
  5
153
330
146
100
AcDbEntity
  8
3D-GLAZ
100
AcDbVertex
100
AcDbPolyFaceMeshVertex
 10
892.9883422851561
 20
422.3019104003906
 30
26.05482101440429
 70
   192
  0
VERTEX
  5
154
330
146
100
AcDbEntity
  8
3D-GLAZ
100
AcDbVertex
100
AcDbPolyFaceMeshVertex
 10
891.9039001464843
 20
424.1802978515624
 30
26.3203125
 70
   192
  0
VERTEX
  5
155
330
146
100
AcDbEntity
  8
3D-GLAZ
100
AcDbVertex
100
AcDbPolyFaceMeshVertex
 10
891.2336425781249
 20
426.2431182861328
 30
26.48439502716064
 70
   192
  0
VERTEX
  5
156
330
146
100
AcDbEntity
  8
3D-GLAZ
100
AcDbVertex
100
AcDbPolyFaceMeshVertex
 10
891.006866455078
 20
428.4001922607421
 30
26.53989887237548
 70
   192
  0
VERTEX
  5
157
330
146
100
AcDbEntity
  8
3D-GLAZ
100
AcDbVertex
100
AcDbPolyFaceMeshVertex
 10
891.006866455078
 20
428.4001922607421
 30
0.0000000000040298
 70
   192
  0
VERTEX
  5
158
330
146
100
AcDbEntity
  8
3D-GLAZ
100
AcDbVertex
100
AcDbPolyFaceMeshVertex
 10
891.2336425781249
 20
426.2431182861328
 30
0.0000000000039992
 70
   192
  0
VERTEX
  5
159
330
146
100
AcDbEntity
  8
3D-GLAZ
100
AcDbVertex
100
AcDbPolyFaceMeshVertex
 10
891.9039001464843
 20
424.1802978515624
 30
0.0000000000039699
 70
   192
  0
VERTEX
  5
15A
330
146
100
AcDbEntity
  8
3D-GLAZ
100
AcDbVertex
100
AcDbPolyFaceMeshVertex
 10
892.9883422851561
 20
422.3019104003906
 30
0.0000000000039432
 70
   192
  0
VERTEX
  5
15B
330
146
100
AcDbEntity
  8
3D-GLAZ
100
AcDbVertex
100
AcDbPolyFaceMeshVertex
 10
894.4396362304686
 20
420.6900787353515
 30
0.0000000000039203
 70
   192
  0
VERTEX
  5
15C
330
146
100
AcDbEntity
  8
3D-GLAZ
100
AcDbVertex
100
AcDbPolyFaceMeshVertex
 10
896.1944274902343
 20
419.4152069091796
 30
0.0000000000039021
 70
   192
  0
VERTEX
  5
15D
330
146
100
AcDbEntity
  8
3D-GLAZ
100
AcDbVertex
100
AcDbPolyFaceMeshVertex
 10
898.175811767578
 20
418.5330047607421
 30
0.0000000000038896
 70
   192
  0
VERTEX
  5
15E
330
146
100
AcDbEntity
  8
3D-GLAZ
100
AcDbVertex
100
AcDbPolyFaceMeshVertex
 10
900.2974548339843
 20
418.0820159912109
 30
0.0000000000038832
 70
   192
  0
VERTEX
  5
15F
330
146
100
AcDbEntity
  8
3D-GLAZ
100
AcDbVertex
100
AcDbPolyFaceMeshVertex
 10
902.4664306640624
 20
418.0820159912109
 30
0.0000000000038832
 70
   192
  0
VERTEX
  5
160
330
146
100
AcDbEntity
  8
3D-GLAZ
100
AcDbVertex
100
AcDbPolyFaceMeshVertex
 10
904.5879821777343
 20
418.5330047607421
 30
0.0000000000038896
 70
   192
  0
VERTEX
  5
161
330
146
100
AcDbEntity
  8
3D-GLAZ
100
AcDbVertex
100
AcDbPolyFaceMeshVertex
 10
906.569366455078
 20
419.4152069091796
 30
0.0000000000039021
 70
   192
  0
VERTEX
  5
162
330
146
100
AcDbEntity
  8
3D-GLAZ
100
AcDbVertex
100
AcDbPolyFaceMeshVertex
 10
908.3241577148436
 20
420.6900787353515
 30
0.0000000000039203
 70
   192
  0
VERTEX
  5
163
330
146
100
AcDbEntity
  8
3D-GLAZ
100
AcDbVertex
100
AcDbPolyFaceMeshVertex
 10
909.7754516601561
 20
422.3019104003906
 30
0.0000000000039432
 70
   192
  0
VERTEX
  5
164
330
146
100
AcDbEntity
  8
3D-GLAZ
100
AcDbVertex
100
AcDbPolyFaceMeshVertex
 10
910.8599853515624
 20
424.1802978515624
 30
0.0000000000039699
 70
   192
  0
VERTEX
  5
165
330
146
100
AcDbEntity
  8
3D-GLAZ
100
AcDbVertex
100
AcDbPolyFaceMeshVertex
 10
911.5301513671874
 20
426.2431182861328
 30
0.0000000000039992
 70
   192
  0
VERTEX
  5
166
330
146
100
AcDbEntity
  8
3D-GLAZ
100
AcDbVertex
100
AcDbPolyFaceMeshVertex
 10
911.7569274902343
 20
428.4001922607421
 30
0.0000000000040298
 70
   192
  0
VERTEX
  5
167
330
146
100
AcDbEntity
  8
3D-GLAZ
100
AcDbFaceRecord
 10
0.0
 20
0.0
 30
0.0
 70
   128
 71
   -14
 72
    19
 73
   -18
 74
    15
  0
VERTEX
  5
168
330
146
100
AcDbEntity
  8
3D-GLAZ
100
AcDbFaceRecord
 10
0.0
 20
0.0
 30
0.0
 70
   128
 71
   -15
 72
    18
 73
    17
 74
    16
  0
VERTEX
  5
169
330
146
100
AcDbEntity
  8
3D-GLAZ
100
AcDbFaceRecord
 10
0.0
 20
0.0
 30
0.0
 70
   128
 71
   -13
 72
    20
 73
   -19
 74
    14
  0
VERTEX
  5
16A
330
146
100
AcDbEntity
  8
3D-GLAZ
100
AcDbFaceRecord
 10
0.0
 20
0.0
 30
0.0
 70
   128
 71
   -10
 72
    23
 73
   -22
 74
    11
  0
VERTEX
  5
16B
330
146
100
AcDbEntity
  8
3D-GLAZ
100
AcDbFaceRecord
 10
0.0
 20
0.0
 30
0.0
 70
   128
 71
   -11
 72
    22
 73
   -21
 74
    12
  0
VERTEX
  5
16C
330
146
100
AcDbEntity
  8
3D-GLAZ
100
AcDbFaceRecord
 10
0.0
 20
0.0
 30
0.0
 70
   128
 71
   -12
 72
    21
 73
   -20
 74
    13
  0
VERTEX
  5
16D
330
146
100
AcDbEntity
  8
3D-GLAZ
100
AcDbFaceRecord
 10
0.0
 20
0.0
 30
0.0
 70
   128
 71
    -9
 72
    24
 73
   -23
 74
    10
  0
VERTEX
  5
16E
330
146
100
AcDbEntity
  8
3D-GLAZ
100
AcDbFaceRecord
 10
0.0
 20
0.0
 30
0.0
 70
   128
 71
   -24
 72
     9
 73
    -8
 74
    25
  0
VERTEX
  5
16F
330
146
100
AcDbEntity
  8
3D-GLAZ
100
AcDbFaceRecord
 10
0.0
 20
0.0
 30
0.0
 70
   128
 71
    -6
 72
    27
 73
   -26
 74
     7
  0
VERTEX
  5
170
330
146
100
AcDbEntity
  8
3D-GLAZ
100
AcDbFaceRecord
 10
0.0
 20
0.0
 30
0.0
 70
   128
 71
    -7
 72
    26
 73
   -25
 74
     8
  0
VERTEX
  5
171
330
146
100
AcDbEntity
  8
3D-GLAZ
100
AcDbFaceRecord
 10
0.0
 20
0.0
 30
0.0
 70
   128
 71
    -5
 72
    28
 73
   -27
 74
     6
  0
VERTEX
  5
172
330
146
100
AcDbEntity
  8
3D-GLAZ
100
AcDbFaceRecord
 10
0.0
 20
0.0
 30
0.0
 70
   128
 71
    -2
 72
    31
 73
   -30
 74
     3
  0
VERTEX
  5
173
330
146
100
AcDbEntity
  8
3D-GLAZ
100
AcDbFaceRecord
 10
0.0
 20
0.0
 30
0.0
 70
   128
 71
    -3
 72
    30
 73
   -29
 74
     4
  0
VERTEX
  5
174
330
146
100
AcDbEntity
  8
3D-GLAZ
100
AcDbFaceRecord
 10
0.0
 20
0.0
 30
0.0
 70
   128
 71
    -4
 72
    29
 73
   -28
 74
     5
  0
VERTEX
  5
175
330
146
100
AcDbEntity
  8
3D-GLAZ
100
AcDbFaceRecord
 10
0.0
 20
0.0
 30
0.0
 70
   128
 71
     1
 72
    32
 73
   -31
 74
     2
  0
SEQEND
  5
176
330
146
100
AcDbEntity
  8
3D-GLAZ
  0
POLYLINE
  5
177
330
75
100
AcDbEntity
  8
3D-GLAZ
100
AcDbPolyFaceMesh
 66
     1
 10
0.0
 20
0.0
 30
0.0
 70
    64
 71
    32
 72
    15
1001
REVIT
1002
{
1070
     1
1000
8352
1002
}
1002
{
1070
     4
1000
10191
1002
}
1002
{
1070
     2
1000
-2000014
1002
}
  0
VERTEX
  5
178
330
177
100
AcDbEntity
  8
3D-GLAZ
100
AcDbVertex
100
AcDbPolyFaceMeshVertex
 10
891.006866455078
 20
428.4001922607421
 30
26.53989887237548
 70
   192
  0
VERTEX
  5
179
330
177
100
AcDbEntity
  8
3D-GLAZ
100
AcDbVertex
100
AcDbPolyFaceMeshVertex
 10
891.2336425781249
 20
430.5572662353515
 30
26.48439502716064
 70
   192
  0
VERTEX
  5
17A
330
177
100
AcDbEntity
  8
3D-GLAZ
100
AcDbVertex
100
AcDbPolyFaceMeshVertex
 10
891.9039001464843
 20
432.6200866699218
 30
26.3203125
 70
   192
  0
VERTEX
  5
17B
330
177
100
AcDbEntity
  8
3D-GLAZ
100
AcDbVertex
100
AcDbPolyFaceMeshVertex
 10
892.9883422851561
 20
434.4984741210937
 30
26.05482101440429
 70
   192
  0
VERTEX
  5
17C
330
177
100
AcDbEntity
  8
3D-GLAZ
100
AcDbVertex
100
AcDbPolyFaceMeshVertex
 10
894.4396362304686
 20
436.1103515624999
 30
25.69952487945556
 70
   192
  0
VERTEX
  5
17D
330
177
100
AcDbEntity
  8
3D-GLAZ
100
AcDbVertex
100
AcDbPolyFaceMeshVertex
 10
896.1944274902343
 20
437.3852233886718
 30
25.26994800567627
 70
   192
  0
VERTEX
  5
17E
330
177
100
AcDbEntity
  8
3D-GLAZ
100
AcDbVertex
100
AcDbPolyFaceMeshVertex
 10
898.175811767578
 20
438.2674255371093
 30
24.78487300872802
 70
   192
  0
VERTEX
  5
17F
330
177
100
AcDbEntity
  8
3D-GLAZ
100
AcDbVertex
100
AcDbPolyFaceMeshVertex
 10
900.2974548339843
 20
438.7183685302734
 30
24.2654914855957
 70
   192
  0
VERTEX
  5
180
330
177
100
AcDbEntity
  8
3D-GLAZ
100
AcDbVertex
100
AcDbPolyFaceMeshVertex
 10
902.4664306640624
 20
438.7183685302734
 30
23.73450851440429
 70
   192
  0
VERTEX
  5
181
330
177
100
AcDbEntity
  8
3D-GLAZ
100
AcDbVertex
100
AcDbPolyFaceMeshVertex
 10
904.5879821777343
 20
438.2674255371093
 30
23.21512842178344
 70
   192
  0
VERTEX
  5
182
330
177
100
AcDbEntity
  8
3D-GLAZ
100
AcDbVertex
100
AcDbPolyFaceMeshVertex
 10
906.569366455078
 20
437.3852233886718
 30
22.73005056381225
 70
   192
  0
VERTEX
  5
183
330
177
100
AcDbEntity
  8
3D-GLAZ
100
AcDbVertex
100
AcDbPolyFaceMeshVertex
 10
908.3241577148436
 20
436.1103515624999
 30
22.3004765510559
 70
   192
  0
VERTEX
  5
184
330
177
100
AcDbEntity
  8
3D-GLAZ
100
AcDbVertex
100
AcDbPolyFaceMeshVertex
 10
909.7754516601561
 20
434.4984741210937
 30
21.9451789855957
 70
   192
  0
VERTEX
  5
185
330
177
100
AcDbEntity
  8
3D-GLAZ
100
AcDbVertex
100
AcDbPolyFaceMeshVertex
 10
910.8599853515624
 20
432.6200866699218
 30
21.6796875
 70
   192
  0
VERTEX
  5
186
330
177
100
AcDbEntity
  8
3D-GLAZ
100
AcDbVertex
100
AcDbPolyFaceMeshVertex
 10
911.5301513671874
 20
430.5572662353515
 30
21.51560497283935
 70
   192
  0
VERTEX
  5
187
330
177
100
AcDbEntity
  8
3D-GLAZ
100
AcDbVertex
100
AcDbPolyFaceMeshVertex
 10
911.7569274902343
 20
428.4001922607421
 30
21.46010255813598
 70
   192
  0
VERTEX
  5
188
330
177
100
AcDbEntity
  8
3D-GLAZ
100
AcDbVertex
100
AcDbPolyFaceMeshVertex
 10
911.7569274902343
 20
428.4001922607421
 30
0.0000000000040298
 70
   192
  0
VERTEX
  5
189
330
177
100
AcDbEntity
  8
3D-GLAZ
100
AcDbVertex
100
AcDbPolyFaceMeshVertex
 10
911.5301513671874
 20
430.5572662353515
 30
0.0000000000040605
 70
   192
  0
VERTEX
  5
18A
330
177
100
AcDbEntity
  8
3D-GLAZ
100
AcDbVertex
100
AcDbPolyFaceMeshVertex
 10
910.8599853515624
 20
432.6200866699218
 30
0.0000000000040898
 70
   192
  0
VERTEX
  5
18B
330
177
100
AcDbEntity
  8
3D-GLAZ
100
AcDbVertex
100
AcDbPolyFaceMeshVertex
 10
909.7754516601561
 20
434.4984741210937
 30
0.0000000000041165
 70
   192
  0
VERTEX
  5
18C
330
177
100
AcDbEntity
  8
3D-GLAZ
100
AcDbVertex
100
AcDbPolyFaceMeshVertex
 10
908.3241577148436
 20
436.1103515624999
 30
0.0000000000041394
 70
   192
  0
VERTEX
  5
18D
330
177
100
AcDbEntity
  8
3D-GLAZ
100
AcDbVertex
100
AcDbPolyFaceMeshVertex
 10
906.569366455078
 20
437.3852233886718
 30
0.0000000000041575
 70
   192
  0
VERTEX
  5
18E
330
177
100
AcDbEntity
  8
3D-GLAZ
100
AcDbVertex
100
AcDbPolyFaceMeshVertex
 10
904.5879821777343
 20
438.2674255371093
 30
0.0000000000041701
 70
   192
  0
VERTEX
  5
18F
330
177
100
AcDbEntity
  8
3D-GLAZ
100
AcDbVertex
100
AcDbPolyFaceMeshVertex
 10
902.4664306640624
 20
438.7183685302734
 30
0.0000000000041765
 70
   192
  0
VERTEX
  5
190
330
177
100
AcDbEntity
  8
3D-GLAZ
100
AcDbVertex
100
AcDbPolyFaceMeshVertex
 10
900.2974548339843
 20
438.7183685302734
 30
0.0000000000041765
 70
   192
  0
VERTEX
  5
191
330
177
100
AcDbEntity
  8
3D-GLAZ
100
AcDbVertex
100
AcDbPolyFaceMeshVertex
 10
898.175811767578
 20
438.2674255371093
 30
0.0000000000041701
 70
   192
  0
VERTEX
  5
192
330
177
100
AcDbEntity
  8
3D-GLAZ
100
AcDbVertex
100
AcDbPolyFaceMeshVertex
 10
896.1944274902343
 20
437.3852233886718
 30
0.0000000000041575
 70
   192
  0
VERTEX
  5
193
330
177
100
AcDbEntity
  8
3D-GLAZ
100
AcDbVertex
100
AcDbPolyFaceMeshVertex
 10
894.4396362304686
 20
436.1103515624999
 30
0.0000000000041394
 70
   192
  0
VERTEX
  5
194
330
177
100
AcDbEntity
  8
3D-GLAZ
100
AcDbVertex
100
AcDbPolyFaceMeshVertex
 10
892.9883422851561
 20
434.4984741210937
 30
0.0000000000041165
 70
   192
  0
VERTEX
  5
195
330
177
100
AcDbEntity
  8
3D-GLAZ
100
AcDbVertex
100
AcDbPolyFaceMeshVertex
 10
891.9039001464843
 20
432.6200866699218
 30
0.0000000000040898
 70
   192
  0
VERTEX
  5
196
330
177
100
AcDbEntity
  8
3D-GLAZ
100
AcDbVertex
100
AcDbPolyFaceMeshVertex
 10
891.2336425781249
 20
430.5572662353515
 30
0.0000000000040605
 70
   192
  0
VERTEX
  5
197
330
177
100
AcDbEntity
  8
3D-GLAZ
100
AcDbVertex
100
AcDbPolyFaceMeshVertex
 10
891.006866455078
 20
428.4001922607421
 30
0.0000000000040298
 70
   192
  0
VERTEX
  5
198
330
177
100
AcDbEntity
  8
3D-GLAZ
100
AcDbFaceRecord
 10
0.0
 20
0.0
 30
0.0
 70
   128
 71
    19
 72
   -18
 73
    15
 74
   -14
  0
VERTEX
  5
199
330
177
100
AcDbEntity
  8
3D-GLAZ
100
AcDbFaceRecord
 10
0.0
 20
0.0
 30
0.0
 70
   128
 71
    18
 72
    17
 73
    16
 74
   -15
  0
VERTEX
  5
19A
330
177
100
AcDbEntity
  8
3D-GLAZ
100
AcDbFaceRecord
 10
0.0
 20
0.0
 30
0.0
 70
   128
 71
    20
 72
   -19
 73
    14
 74
   -13
  0
VERTEX
  5
19B
330
177
100
AcDbEntity
  8
3D-GLAZ
100
AcDbFaceRecord
 10
0.0
 20
0.0
 30
0.0
 70
   128
 71
    23
 72
   -22
 73
    11
 74
   -10
  0
VERTEX
  5
19C
330
177
100
AcDbEntity
  8
3D-GLAZ
100
AcDbFaceRecord
 10
0.0
 20
0.0
 30
0.0
 70
   128
 71
    22
 72
   -21
 73
    12
 74
   -11
  0
VERTEX
  5
19D
330
177
100
AcDbEntity
  8
3D-GLAZ
100
AcDbFaceRecord
 10
0.0
 20
0.0
 30
0.0
 70
   128
 71
    21
 72
   -20
 73
    13
 74
   -12
  0
VERTEX
  5
19E
330
177
100
AcDbEntity
  8
3D-GLAZ
100
AcDbFaceRecord
 10
0.0
 20
0.0
 30
0.0
 70
   128
 71
    24
 72
   -23
 73
    10
 74
    -9
  0
VERTEX
  5
19F
330
177
100
AcDbEntity
  8
3D-GLAZ
100
AcDbFaceRecord
 10
0.0
 20
0.0
 30
0.0
 70
   128
 71
    25
 72
   -24
 73
     9
 74
    -8
  0
VERTEX
  5
1A0
330
177
100
AcDbEntity
  8
3D-GLAZ
100
AcDbFaceRecord
 10
0.0
 20
0.0
 30
0.0
 70
   128
 71
    27
 72
   -26
 73
     7
 74
    -6
  0
VERTEX
  5
1A1
330
177
100
AcDbEntity
  8
3D-GLAZ
100
AcDbFaceRecord
 10
0.0
 20
0.0
 30
0.0
 70
   128
 71
    26
 72
   -25
 73
     8
 74
    -7
  0
VERTEX
  5
1A2
330
177
100
AcDbEntity
  8
3D-GLAZ
100
AcDbFaceRecord
 10
0.0
 20
0.0
 30
0.0
 70
   128
 71
    28
 72
   -27
 73
     6
 74
    -5
  0
VERTEX
  5
1A3
330
177
100
AcDbEntity
  8
3D-GLAZ
100
AcDbFaceRecord
 10
0.0
 20
0.0
 30
0.0
 70
   128
 71
    31
 72
   -30
 73
     3
 74
    -2
  0
VERTEX
  5
1A4
330
177
100
AcDbEntity
  8
3D-GLAZ
100
AcDbFaceRecord
 10
0.0
 20
0.0
 30
0.0
 70
   128
 71
    30
 72
   -29
 73
     4
 74
    -3
  0
VERTEX
  5
1A5
330
177
100
AcDbEntity
  8
3D-GLAZ
100
AcDbFaceRecord
 10
0.0
 20
0.0
 30
0.0
 70
   128
 71
    29
 72
   -28
 73
     5
 74
    -4
  0
VERTEX
  5
1A6
330
177
100
AcDbEntity
  8
3D-GLAZ
100
AcDbFaceRecord
 10
0.0
 20
0.0
 30
0.0
 70
   128
 71
    32
 72
   -31
 73
     2
 74
     1
  0
SEQEND
  5
1A7
330
177
100
AcDbEntity
  8
3D-GLAZ
  0
POLYLINE
  5
1A8
330
75
100
AcDbEntity
  8
3D-GLAZ
100
AcDbPolyFaceMesh
 66
     1
 10
0.0
 20
0.0
 30
0.0
 70
    64
 71
    32
 72
    26
1001
REVIT
1002
{
1070
     1
1000
8352
1002
}
1002
{
1070
     4
1000
10191
1002
}
1002
{
1070
     2
1000
-2000014
1002
}
  0
VERTEX
  5
1A9
330
1A8
100
AcDbEntity
  8
3D-GLAZ
100
AcDbVertex
100
AcDbPolyFaceMeshVertex
 10
890.8818969726561
 20
428.4001922607421
 30
26.57050037384033
 70
   192
  0
VERTEX
  5
1AA
330
1A8
100
AcDbEntity
  8
3D-GLAZ
100
AcDbVertex
100
AcDbPolyFaceMeshVertex
 10
891.1113281249999
 20
426.2171173095703
 30
26.51432704925537
 70
   192
  0
VERTEX
  5
1AB
330
1A8
100
AcDbEntity
  8
3D-GLAZ
100
AcDbVertex
100
AcDbPolyFaceMeshVertex
 10
891.7896423339843
 20
424.1294860839843
 30
26.34826755523681
 70
   192
  0
VERTEX
  5
1AC
330
1A8
100
AcDbEntity
  8
3D-GLAZ
100
AcDbVertex
100
AcDbPolyFaceMeshVertex
 10
892.8872680664061
 20
422.2284393310546
 30
26.07957744598388
 70
   192
  0
VERTEX
  5
1AD
330
1A8
100
AcDbEntity
  8
3D-GLAZ
100
AcDbVertex
100
AcDbPolyFaceMeshVertex
 10
894.3560485839843
 20
420.5971984863281
 30
25.71999835968017
 70
   192
  0
VERTEX
  5
1AE
330
1A8
100
AcDbEntity
  8
3D-GLAZ
100
AcDbVertex
100
AcDbPolyFaceMeshVertex
 10
896.1318969726561
 20
419.3069458007812
 30
25.28524875640869
 70
   192
  0
VERTEX
  5
1AF
330
1A8
100
AcDbEntity
  8
3D-GLAZ
100
AcDbVertex
100
AcDbPolyFaceMeshVertex
 10
898.1372680664061
 20
418.4141235351562
 30
24.79432868957519
 70
   192
  0
VERTEX
  5
1B0
330
1A8
100
AcDbEntity
  8
3D-GLAZ
100
AcDbVertex
100
AcDbPolyFaceMeshVertex
 10
900.2843627929686
 20
417.9577331542968
 30
24.26869010925293
 70
   192
  0
VERTEX
  5
1B1
330
1A8
100
AcDbEntity
  8
3D-GLAZ
100
AcDbVertex
100
AcDbPolyFaceMeshVertex
 10
902.4794311523436
 20
417.9577331542968
 30
23.73130989074707
 70
   192
  0
VERTEX
  5
1B2
330
1A8
100
AcDbEntity
  8
3D-GLAZ
100
AcDbVertex
100
AcDbPolyFaceMeshVertex
 10
904.6266174316405
 20
418.4141235351562
 30
23.2056713104248
 70
   192
  0
VERTEX
  5
1B3
330
1A8
100
AcDbEntity
  8
3D-GLAZ
100
AcDbVertex
100
AcDbPolyFaceMeshVertex
 10
906.6318969726561
 20
419.3069458007812
 30
22.71474981307983
 70
   192
  0
VERTEX
  5
1B4
330
1A8
100
AcDbEntity
  8
3D-GLAZ
100
AcDbVertex
100
AcDbPolyFaceMeshVertex
 10
908.407745361328
 20
420.5971984863281
 30
22.28000020980835
 70
   192
  0
VERTEX
  5
1B5
330
1A8
100
AcDbEntity
  8
3D-GLAZ
100
AcDbVertex
100
AcDbPolyFaceMeshVertex
 10
909.8766174316405
 20
422.2284393310546
 30
21.92042255401611
 70
   192
  0
VERTEX
  5
1B6
330
1A8
100
AcDbEntity
  8
3D-GLAZ
100
AcDbVertex
100
AcDbPolyFaceMeshVertex
 10
910.974151611328
 20
424.1294860839843
 30
21.65173244476318
 70
   192
  0
VERTEX
  5
1B7
330
1A8
100
AcDbEntity
  8
3D-GLAZ
100
AcDbVertex
100
AcDbPolyFaceMeshVertex
 10
911.6524658203124
 20
426.2171173095703
 30
21.48567295074463
 70
   192
  0
VERTEX
  5
1B8
330
1A8
100
AcDbEntity
  8
3D-GLAZ
100
AcDbVertex
100
AcDbPolyFaceMeshVertex
 10
911.8818969726561
 20
428.4001922607421
 30
21.42950105667114
 70
   192
  0
VERTEX
  5
1B9
330
1A8
100
AcDbEntity
  8
3D-GLAZ
100
AcDbVertex
100
AcDbPolyFaceMeshVertex
 10
936.8819274902343
 20
428.4001922607421
 30
69.4295024871826
 70
   192
  0
VERTEX
  5
1BA
330
1A8
100
AcDbEntity
  8
3D-GLAZ
100
AcDbVertex
100
AcDbPolyFaceMeshVertex
 10
936.6524963378905
 20
426.2171173095703
 30
69.48567008972167
 70
   192
  0
VERTEX
  5
1BB
330
1A8
100
AcDbEntity
  8
3D-GLAZ
100
AcDbVertex
100
AcDbPolyFaceMeshVertex
 10
935.9740905761718
 20
424.1294860839843
 30
69.65172958374022
 70
   192
  0
VERTEX
  5
1BC
330
1A8
100
AcDbEntity
  8
3D-GLAZ
100
AcDbVertex
100
AcDbPolyFaceMeshVertex
 10
934.8765563964843
 20
422.2284393310546
 30
69.92041969299315
 70
   192
  0
VERTEX
  5
1BD
330
1A8
100
AcDbEntity
  8
3D-GLAZ
100
AcDbVertex
100
AcDbPolyFaceMeshVertex
 10
933.4077758789061
 20
420.5971984863281
 30
70.27999877929686
 70
   192
  0
VERTEX
  5
1BE
330
1A8
100
AcDbEntity
  8
3D-GLAZ
100
AcDbVertex
100
AcDbPolyFaceMeshVertex
 10
931.6319274902343
 20
419.3069458007812
 30
70.71474838256835
 70
   192
  0
VERTEX
  5
1BF
330
1A8
100
AcDbEntity
  8
3D-GLAZ
100
AcDbVertex
100
AcDbPolyFaceMeshVertex
 10
929.6265563964843
 20
418.4141235351562
 30
71.20567131042479
 70
   192
  0
VERTEX
  5
1C0
330
1A8
100
AcDbEntity
  8
3D-GLAZ
100
AcDbVertex
100
AcDbPolyFaceMeshVertex
 10
927.4794616699218
 20
417.9577331542968
 30
71.73130989074706
 70
   192
  0
VERTEX
  5
1C1
330
1A8
100
AcDbEntity
  8
3D-GLAZ
100
AcDbVertex
100
AcDbPolyFaceMeshVertex
 10
925.2843933105468
 20
417.9577331542968
 30
72.26869010925292
 70
   192
  0
VERTEX
  5
1C2
330
1A8
100
AcDbEntity
  8
3D-GLAZ
100
AcDbVertex
100
AcDbPolyFaceMeshVertex
 10
923.1372070312499
 20
418.4141235351562
 30
72.79432868957518
 70
   192
  0
VERTEX
  5
1C3
330
1A8
100
AcDbEntity
  8
3D-GLAZ
100
AcDbVertex
100
AcDbPolyFaceMeshVertex
 10
921.1319274902343
 20
419.3069458007812
 30
73.28525161743163
 70
   192
  0
VERTEX
  5
1C4
330
1A8
100
AcDbEntity
  8
3D-GLAZ
100
AcDbVertex
100
AcDbPolyFaceMeshVertex
 10
919.3560791015624
 20
420.5971984863281
 30
73.72000122070311
 70
   192
  0
VERTEX
  5
1C5
330
1A8
100
AcDbEntity
  8
3D-GLAZ
100
AcDbVertex
100
AcDbPolyFaceMeshVertex
 10
917.8872070312499
 20
422.2284393310546
 30
74.07958030700682
 70
   192
  0
VERTEX
  5
1C6
330
1A8
100
AcDbEntity
  8
3D-GLAZ
100
AcDbVertex
100
AcDbPolyFaceMeshVertex
 10
916.7896728515624
 20
424.1294860839843
 30
74.34827041625975
 70
   192
  0
VERTEX
  5
1C7
330
1A8
100
AcDbEntity
  8
3D-GLAZ
100
AcDbVertex
100
AcDbPolyFaceMeshVertex
 10
916.111358642578
 20
426.2171173095703
 30
74.5143299102783
 70
   192
  0
VERTEX
  5
1C8
330
1A8
100
AcDbEntity
  8
3D-GLAZ
100
AcDbVertex
100
AcDbPolyFaceMeshVertex
 10
915.8819274902343
 20
428.4001922607421
 30
74.57049751281737
 70
   192
  0
VERTEX
  5
1C9
330
1A8
100
AcDbEntity
  8
3D-GLAZ
100
AcDbFaceRecord
 10
0.0
 20
0.0
 30
0.0
 70
   128
 71
    16
 72
    17
 73
   -18
  0
VERTEX
  5
1CA
330
1A8
100
AcDbEntity
  8
3D-GLAZ
100
AcDbFaceRecord
 10
0.0
 20
0.0
 30
0.0
 70
   128
 71
   -15
 72
    18
 73
   -19
  0
VERTEX
  5
1CB
330
1A8
100
AcDbEntity
  8
3D-GLAZ
100
AcDbFaceRecord
 10
0.0
 20
0.0
 30
0.0
 70
   128
 71
   -20
 72
   -14
 73
    19
  0
VERTEX
  5
1CC
330
1A8
100
AcDbEntity
  8
3D-GLAZ
100
AcDbFaceRecord
 10
0.0
 20
0.0
 30
0.0
 70
   128
 71
   -12
 72
    21
 73
   -22
 74
    11
  0
VERTEX
  5
1CD
330
1A8
100
AcDbEntity
  8
3D-GLAZ
100
AcDbFaceRecord
 10
0.0
 20
0.0
 30
0.0
 70
   128
 71
    22
 72
   -23
 73
   -11
  0
VERTEX
  5
1CE
330
1A8
100
AcDbEntity
  8
3D-GLAZ
100
AcDbFaceRecord
 10
0.0
 20
0.0
 30
0.0
 70
   128
 71
   -21
 72
   -13
 73
    20
  0
VERTEX
  5
1CF
330
1A8
100
AcDbEntity
  8
3D-GLAZ
100
AcDbFaceRecord
 10
0.0
 20
0.0
 30
0.0
 70
   128
 71
   -10
 72
    23
 73
   -24
  0
VERTEX
  5
1D0
330
1A8
100
AcDbEntity
  8
3D-GLAZ
100
AcDbFaceRecord
 10
0.0
 20
0.0
 30
0.0
 70
   128
 71
    15
 72
   -16
 73
   -18
  0
VERTEX
  5
1D1
330
1A8
100
AcDbEntity
  8
3D-GLAZ
100
AcDbFaceRecord
 10
0.0
 20
0.0
 30
0.0
 70
   128
 71
    13
 72
   -14
 73
   -20
  0
VERTEX
  5
1D2
330
1A8
100
AcDbEntity
  8
3D-GLAZ
100
AcDbFaceRecord
 10
0.0
 20
0.0
 30
0.0
 70
   128
 71
   -15
 72
   -19
 73
    14
  0
VERTEX
  5
1D3
330
1A8
100
AcDbEntity
  8
3D-GLAZ
100
AcDbFaceRecord
 10
0.0
 20
0.0
 30
0.0
 70
   128
 71
     9
 72
   -10
 73
   -24
  0
VERTEX
  5
1D4
330
1A8
100
AcDbEntity
  8
3D-GLAZ
100
AcDbFaceRecord
 10
0.0
 20
0.0
 30
0.0
 70
   128
 71
   -11
 72
   -23
 73
    10
  0
VERTEX
  5
1D5
330
1A8
100
AcDbEntity
  8
3D-GLAZ
100
AcDbFaceRecord
 10
0.0
 20
0.0
 30
0.0
 70
   128
 71
   -13
 72
   -21
 73
    12
  0
VERTEX
  5
1D6
330
1A8
100
AcDbEntity
  8
3D-GLAZ
100
AcDbFaceRecord
 10
0.0
 20
0.0
 30
0.0
 70
   128
 71
    -9
 72
    24
 73
   -25
 74
     8
  0
VERTEX
  5
1D7
330
1A8
100
AcDbEntity
  8
3D-GLAZ
100
AcDbFaceRecord
 10
0.0
 20
0.0
 30
0.0
 70
   128
 71
    25
 72
   -26
 73
    -8
  0
VERTEX
  5
1D8
330
1A8
100
AcDbEntity
  8
3D-GLAZ
100
AcDbFaceRecord
 10
0.0
 20
0.0
 30
0.0
 70
   128
 71
    -6
 72
    27
 73
   -28
 74
     5
  0
VERTEX
  5
1D9
330
1A8
100
AcDbEntity
  8
3D-GLAZ
100
AcDbFaceRecord
 10
0.0
 20
0.0
 30
0.0
 70
   128
 71
    26
 72
   -27
 73
    -7
  0
VERTEX
  5
1DA
330
1A8
100
AcDbEntity
  8
3D-GLAZ
100
AcDbFaceRecord
 10
0.0
 20
0.0
 30
0.0
 70
   128
 71
    29
 72
   -30
 73
    -4
  0
VERTEX
  5
1DB
330
1A8
100
AcDbEntity
  8
3D-GLAZ
100
AcDbFaceRecord
 10
0.0
 20
0.0
 30
0.0
 70
   128
 71
    31
 72
   -32
 73
    -2
  0
VERTEX
  5
1DC
330
1A8
100
AcDbEntity
  8
3D-GLAZ
100
AcDbFaceRecord
 10
0.0
 20
0.0
 30
0.0
 70
   128
 71
    -3
 72
    30
 73
   -31
 74
     2
  0
VERTEX
  5
1DD
330
1A8
100
AcDbEntity
  8
3D-GLAZ
100
AcDbFaceRecord
 10
0.0
 20
0.0
 30
0.0
 70
   128
 71
    28
 72
   -29
 73
    -5
  0
VERTEX
  5
1DE
330
1A8
100
AcDbEntity
  8
3D-GLAZ
100
AcDbFaceRecord
 10
0.0
 20
0.0
 30
0.0
 70
   128
 71
     6
 72
    -7
 73
   -27
  0
VERTEX
  5
1DF
330
1A8
100
AcDbEntity
  8
3D-GLAZ
100
AcDbFaceRecord
 10
0.0
 20
0.0
 30
0.0
 70
   128
 71
    -8
 72
   -26
 73
     7
  0
VERTEX
  5
1E0
330
1A8
100
AcDbEntity
  8
3D-GLAZ
100
AcDbFaceRecord
 10
0.0
 20
0.0
 30
0.0
 70
   128
 71
    -4
 72
   -30
 73
     3
  0
VERTEX
  5
1E1
330
1A8
100
AcDbEntity
  8
3D-GLAZ
100
AcDbFaceRecord
 10
0.0
 20
0.0
 30
0.0
 70
   128
 71
    -5
 72
   -29
 73
     4
  0
VERTEX
  5
1E2
330
1A8
100
AcDbEntity
  8
3D-GLAZ
100
AcDbFaceRecord
 10
0.0
 20
0.0
 30
0.0
 70
   128
 71
    -2
 72
    32
 73
     1
  0
SEQEND
  5
1E3
330
1A8
100
AcDbEntity
  8
3D-GLAZ
  0
POLYLINE
  5
1E4
330
75
100
AcDbEntity
  8
3D-GLAZ
100
AcDbPolyFaceMesh
 66
     1
 10
0.0
 20
0.0
 30
0.0
 70
    64
 71
    32
 72
    26
1001
REVIT
1002
{
1070
     1
1000
8352
1002
}
1002
{
1070
     4
1000
10191
1002
}
1002
{
1070
     2
1000
-2000014
1002
}
  0
VERTEX
  5
1E5
330
1E4
100
AcDbEntity
  8
3D-GLAZ
100
AcDbVertex
100
AcDbPolyFaceMeshVertex
 10
911.8818969726561
 20
428.4001922607421
 30
21.42950105667114
 70
   192
  0
VERTEX
  5
1E6
330
1E4
100
AcDbEntity
  8
3D-GLAZ
100
AcDbVertex
100
AcDbPolyFaceMeshVertex
 10
911.6524658203124
 20
430.583267211914
 30
21.48567295074463
 70
   192
  0
VERTEX
  5
1E7
330
1E4
100
AcDbEntity
  8
3D-GLAZ
100
AcDbVertex
100
AcDbPolyFaceMeshVertex
 10
910.974151611328
 20
432.6709442138671
 30
21.65173244476318
 70
   192
  0
VERTEX
  5
1E8
330
1E4
100
AcDbEntity
  8
3D-GLAZ
100
AcDbVertex
100
AcDbPolyFaceMeshVertex
 10
909.8766174316405
 20
434.5719451904296
 30
21.92042255401611
 70
   192
  0
VERTEX
  5
1E9
330
1E4
100
AcDbEntity
  8
3D-GLAZ
100
AcDbVertex
100
AcDbPolyFaceMeshVertex
 10
908.407745361328
 20
436.2032318115234
 30
22.28000020980835
 70
   192
  0
VERTEX
  5
1EA
330
1E4
100
AcDbEntity
  8
3D-GLAZ
100
AcDbVertex
100
AcDbPolyFaceMeshVertex
 10
906.6318969726561
 20
437.4934844970703
 30
22.71474981307983
 70
   192
  0
VERTEX
  5
1EB
330
1E4
100
AcDbEntity
  8
3D-GLAZ
100
AcDbVertex
100
AcDbPolyFaceMeshVertex
 10
904.6266174316405
 20
438.3863067626953
 30
23.2056713104248
 70
   192
  0
VERTEX
  5
1EC
330
1E4
100
AcDbEntity
  8
3D-GLAZ
100
AcDbVertex
100
AcDbPolyFaceMeshVertex
 10
902.4794311523436
 20
438.8426971435546
 30
23.73130989074707
 70
   192
  0
VERTEX
  5
1ED
330
1E4
100
AcDbEntity
  8
3D-GLAZ
100
AcDbVertex
100
AcDbPolyFaceMeshVertex
 10
900.2843627929686
 20
438.8426971435546
 30
24.26869010925293
 70
   192
  0
VERTEX
  5
1EE
330
1E4
100
AcDbEntity
  8
3D-GLAZ
100
AcDbVertex
100
AcDbPolyFaceMeshVertex
 10
898.1372680664061
 20
438.3863067626953
 30
24.79432868957519
 70
   192
  0
VERTEX
  5
1EF
330
1E4
100
AcDbEntity
  8
3D-GLAZ
100
AcDbVertex
100
AcDbPolyFaceMeshVertex
 10
896.1318969726561
 20
437.4934844970703
 30
25.28524875640869
 70
   192
  0
VERTEX
  5
1F0
330
1E4
100
AcDbEntity
  8
3D-GLAZ
100
AcDbVertex
100
AcDbPolyFaceMeshVertex
 10
894.3560485839843
 20
436.2032318115234
 30
25.71999835968017
 70
   192
  0
VERTEX
  5
1F1
330
1E4
100
AcDbEntity
  8
3D-GLAZ
100
AcDbVertex
100
AcDbPolyFaceMeshVertex
 10
892.8872680664061
 20
434.5719451904296
 30
26.07957744598388
 70
   192
  0
VERTEX
  5
1F2
330
1E4
100
AcDbEntity
  8
3D-GLAZ
100
AcDbVertex
100
AcDbPolyFaceMeshVertex
 10
891.7896423339843
 20
432.6709442138671
 30
26.34826755523681
 70
   192
  0
VERTEX
  5
1F3
330
1E4
100
AcDbEntity
  8
3D-GLAZ
100
AcDbVertex
100
AcDbPolyFaceMeshVertex
 10
891.1113281249999
 20
430.583267211914
 30
26.51432704925537
 70
   192
  0
VERTEX
  5
1F4
330
1E4
100
AcDbEntity
  8
3D-GLAZ
100
AcDbVertex
100
AcDbPolyFaceMeshVertex
 10
890.8818969726561
 20
428.4001922607421
 30
26.57050037384033
 70
   192
  0
VERTEX
  5
1F5
330
1E4
100
AcDbEntity
  8
3D-GLAZ
100
AcDbVertex
100
AcDbPolyFaceMeshVertex
 10
915.8819274902343
 20
428.4001922607421
 30
74.57049751281737
 70
   192
  0
VERTEX
  5
1F6
330
1E4
100
AcDbEntity
  8
3D-GLAZ
100
AcDbVertex
100
AcDbPolyFaceMeshVertex
 10
916.111358642578
 20
430.583267211914
 30
74.5143299102783
 70
   192
  0
VERTEX
  5
1F7
330
1E4
100
AcDbEntity
  8
3D-GLAZ
100
AcDbVertex
100
AcDbPolyFaceMeshVertex
 10
916.7896728515624
 20
432.6709442138671
 30
74.34827041625975
 70
   192
  0
VERTEX
  5
1F8
330
1E4
100
AcDbEntity
  8
3D-GLAZ
100
AcDbVertex
100
AcDbPolyFaceMeshVertex
 10
917.8872070312499
 20
434.5719451904296
 30
74.07958030700682
 70
   192
  0
VERTEX
  5
1F9
330
1E4
100
AcDbEntity
  8
3D-GLAZ
100
AcDbVertex
100
AcDbPolyFaceMeshVertex
 10
919.3560791015624
 20
436.2032318115234
 30
73.72000122070311
 70
   192
  0
VERTEX
  5
1FA
330
1E4
100
AcDbEntity
  8
3D-GLAZ
100
AcDbVertex
100
AcDbPolyFaceMeshVertex
 10
921.1319274902343
 20
437.4934844970703
 30
73.28525161743163
 70
   192
  0
VERTEX
  5
1FB
330
1E4
100
AcDbEntity
  8
3D-GLAZ
100
AcDbVertex
100
AcDbPolyFaceMeshVertex
 10
923.1372070312499
 20
438.3863067626953
 30
72.79432868957518
 70
   192
  0
VERTEX
  5
1FC
330
1E4
100
AcDbEntity
  8
3D-GLAZ
100
AcDbVertex
100
AcDbPolyFaceMeshVertex
 10
925.2843933105468
 20
438.8426971435546
 30
72.26869010925292
 70
   192
  0
VERTEX
  5
1FD
330
1E4
100
AcDbEntity
  8
3D-GLAZ
100
AcDbVertex
100
AcDbPolyFaceMeshVertex
 10
927.4794616699218
 20
438.8426971435546
 30
71.73130989074706
 70
   192
  0
VERTEX
  5
1FE
330
1E4
100
AcDbEntity
  8
3D-GLAZ
100
AcDbVertex
100
AcDbPolyFaceMeshVertex
 10
929.6265563964843
 20
438.3863067626953
 30
71.20567131042479
 70
   192
  0
VERTEX
  5
1FF
330
1E4
100
AcDbEntity
  8
3D-GLAZ
100
AcDbVertex
100
AcDbPolyFaceMeshVertex
 10
931.6319274902343
 20
437.4934844970703
 30
70.71474838256835
 70
   192
  0
VERTEX
  5
200
330
1E4
100
AcDbEntity
  8
3D-GLAZ
100
AcDbVertex
100
AcDbPolyFaceMeshVertex
 10
933.4077758789061
 20
436.2032318115234
 30
70.27999877929686
 70
   192
  0
VERTEX
  5
201
330
1E4
100
AcDbEntity
  8
3D-GLAZ
100
AcDbVertex
100
AcDbPolyFaceMeshVertex
 10
934.8765563964843
 20
434.5719451904296
 30
69.92041969299315
 70
   192
  0
VERTEX
  5
202
330
1E4
100
AcDbEntity
  8
3D-GLAZ
100
AcDbVertex
100
AcDbPolyFaceMeshVertex
 10
935.9740905761718
 20
432.6709442138671
 30
69.65172958374022
 70
   192
  0
VERTEX
  5
203
330
1E4
100
AcDbEntity
  8
3D-GLAZ
100
AcDbVertex
100
AcDbPolyFaceMeshVertex
 10
936.6524963378905
 20
430.583267211914
 30
69.48567008972167
 70
   192
  0
VERTEX
  5
204
330
1E4
100
AcDbEntity
  8
3D-GLAZ
100
AcDbVertex
100
AcDbPolyFaceMeshVertex
 10
936.8819274902343
 20
428.4001922607421
 30
69.4295024871826
 70
   192
  0
VERTEX
  5
205
330
1E4
100
AcDbEntity
  8
3D-GLAZ
100
AcDbFaceRecord
 10
0.0
 20
0.0
 30
0.0
 70
   128
 71
    19
 72
   -20
 73
   -13
  0
VERTEX
  5
206
330
1E4
100
AcDbEntity
  8
3D-GLAZ
100
AcDbFaceRecord
 10
0.0
 20
0.0
 30
0.0
 70
   128
 71
    17
 72
   -18
 73
   -15
  0
VERTEX
  5
207
330
1E4
100
AcDbEntity
  8
3D-GLAZ
100
AcDbFaceRecord
 10
0.0
 20
0.0
 30
0.0
 70
   128
 71
    18
 72
   -19
 73
    14
 74
   -15
  0
VERTEX
  5
208
330
1E4
100
AcDbEntity
  8
3D-GLAZ
100
AcDbFaceRecord
 10
0.0
 20
0.0
 30
0.0
 70
   128
 71
    23
 72
   -24
 73
    -9
  0
VERTEX
  5
209
330
1E4
100
AcDbEntity
  8
3D-GLAZ
100
AcDbFaceRecord
 10
0.0
 20
0.0
 30
0.0
 70
   128
 71
    21
 72
   -22
 73
    11
 74
   -12
  0
VERTEX
  5
20A
330
1E4
100
AcDbEntity
  8
3D-GLAZ
100
AcDbFaceRecord
 10
0.0
 20
0.0
 30
0.0
 70
   128
 71
   -23
 72
   -10
 73
    22
  0
VERTEX
  5
20B
330
1E4
100
AcDbEntity
  8
3D-GLAZ
100
AcDbFaceRecord
 10
0.0
 20
0.0
 30
0.0
 70
   128
 71
    20
 72
   -21
 73
   -12
  0
VERTEX
  5
20C
330
1E4
100
AcDbEntity
  8
3D-GLAZ
100
AcDbFaceRecord
 10
0.0
 20
0.0
 30
0.0
 70
   128
 71
    16
 72
   -17
 73
    15
  0
VERTEX
  5
20D
330
1E4
100
AcDbEntity
  8
3D-GLAZ
100
AcDbFaceRecord
 10
0.0
 20
0.0
 30
0.0
 70
   128
 71
   -19
 72
    13
 73
   -14
  0
VERTEX
  5
20E
330
1E4
100
AcDbEntity
  8
3D-GLAZ
100
AcDbFaceRecord
 10
0.0
 20
0.0
 30
0.0
 70
   128
 71
   -20
 72
    12
 73
   -13
  0
VERTEX
  5
20F
330
1E4
100
AcDbEntity
  8
3D-GLAZ
100
AcDbFaceRecord
 10
0.0
 20
0.0
 30
0.0
 70
   128
 71
   -22
 72
    10
 73
   -11
  0
VERTEX
  5
210
330
1E4
100
AcDbEntity
  8
3D-GLAZ
100
AcDbFaceRecord
 10
0.0
 20
0.0
 30
0.0
 70
   128
 71
   -23
 72
     9
 73
   -10
  0
VERTEX
  5
211
330
1E4
100
AcDbEntity
  8
3D-GLAZ
100
AcDbFaceRecord
 10
0.0
 20
0.0
 30
0.0
 70
   128
 71
     8
 72
    -9
 73
    24
 74
   -25
  0
VERTEX
  5
212
330
1E4
100
AcDbEntity
  8
3D-GLAZ
100
AcDbFaceRecord
 10
0.0
 20
0.0
 30
0.0
 70
   128
 71
    -6
 72
    26
 73
   -27
  0
VERTEX
  5
213
330
1E4
100
AcDbEntity
  8
3D-GLAZ
100
AcDbFaceRecord
 10
0.0
 20
0.0
 30
0.0
 70
   128
 71
   -26
 72
    -7
 73
    25
  0
VERTEX
  5
214
330
1E4
100
AcDbEntity
  8
3D-GLAZ
100
AcDbFaceRecord
 10
0.0
 20
0.0
 30
0.0
 70
   128
 71
    27
 72
   -28
 73
     5
 74
    -6
  0
VERTEX
  5
215
330
1E4
100
AcDbEntity
  8
3D-GLAZ
100
AcDbFaceRecord
 10
0.0
 20
0.0
 30
0.0
 70
   128
 71
    30
 72
   -31
 73
    -2
  0
VERTEX
  5
216
330
1E4
100
AcDbEntity
  8
3D-GLAZ
100
AcDbFaceRecord
 10
0.0
 20
0.0
 30
0.0
 70
   128
 71
    -3
 72
    29
 73
   -30
  0
VERTEX
  5
217
330
1E4
100
AcDbEntity
  8
3D-GLAZ
100
AcDbFaceRecord
 10
0.0
 20
0.0
 30
0.0
 70
   128
 71
   -29
 72
    -4
 73
    28
  0
VERTEX
  5
218
330
1E4
100
AcDbEntity
  8
3D-GLAZ
100
AcDbFaceRecord
 10
0.0
 20
0.0
 30
0.0
 70
   128
 71
    31
 72
    32
 73
    -1
  0
VERTEX
  5
219
330
1E4
100
AcDbEntity
  8
3D-GLAZ
100
AcDbFaceRecord
 10
0.0
 20
0.0
 30
0.0
 70
   128
 71
     7
 72
    -8
 73
   -25
  0
VERTEX
  5
21A
330
1E4
100
AcDbEntity
  8
3D-GLAZ
100
AcDbFaceRecord
 10
0.0
 20
0.0
 30
0.0
 70
   128
 71
     6
 72
    -7
 73
   -26
  0
VERTEX
  5
21B
330
1E4
100
AcDbEntity
  8
3D-GLAZ
100
AcDbFaceRecord
 10
0.0
 20
0.0
 30
0.0
 70
   128
 71
     1
 72
    -2
 73
   -31
  0
VERTEX
  5
21C
330
1E4
100
AcDbEntity
  8
3D-GLAZ
100
AcDbFaceRecord
 10
0.0
 20
0.0
 30
0.0
 70
   128
 71
     3
 72
    -4
 73
   -29
  0
VERTEX
  5
21D
330
1E4
100
AcDbEntity
  8
3D-GLAZ
100
AcDbFaceRecord
 10
0.0
 20
0.0
 30
0.0
 70
   128
 71
     2
 72
    -3
 73
   -30
  0
VERTEX
  5
21E
330
1E4
100
AcDbEntity
  8
3D-GLAZ
100
AcDbFaceRecord
 10
0.0
 20
0.0
 30
0.0
 70
   128
 71
    -5
 72
   -28
 73
     4
  0
SEQEND
  5
21F
330
1E4
100
AcDbEntity
  8
3D-GLAZ
  0
POLYLINE
  5
220
330
75
100
AcDbEntity
  8
3D-GLAZ
100
AcDbPolyFaceMesh
 66
     1
 10
0.0
 20
0.0
 30
0.0
 70
    64
 71
    32
 72
    27
1001
REVIT
1002
{
1070
     1
1000
8352
1002
}
1002
{
1070
     4
1000
10191
1002
}
1002
{
1070
     2
1000
-2000014
1002
}
  0
VERTEX
  5
221
330
220
100
AcDbEntity
  8
3D-GLAZ
100
AcDbVertex
100
AcDbPolyFaceMeshVertex
 10
936.756866455078
 20
428.4001922607421
 30
69.46010398864745
 70
   192
  0
VERTEX
  5
222
330
220
100
AcDbEntity
  8
3D-GLAZ
100
AcDbVertex
100
AcDbPolyFaceMeshVertex
 10
936.5301818847655
 20
426.2431182861328
 30
69.51560211181639
 70
   192
  0
VERTEX
  5
223
330
220
100
AcDbEntity
  8
3D-GLAZ
100
AcDbVertex
100
AcDbPolyFaceMeshVertex
 10
935.8599243164061
 20
424.1802978515624
 30
69.67968749999999
 70
   192
  0
VERTEX
  5
224
330
220
100
AcDbEntity
  8
3D-GLAZ
100
AcDbVertex
100
AcDbPolyFaceMeshVertex
 10
934.7754821777343
 20
422.3019104003906
 30
69.94517898559569
 70
   192
  0
VERTEX
  5
225
330
220
100
AcDbEntity
  8
3D-GLAZ
100
AcDbVertex
100
AcDbPolyFaceMeshVertex
 10
933.3240966796874
 20
420.6900787353515
 30
70.30047798156737
 70
   192
  0
VERTEX
  5
226
330
220
100
AcDbEntity
  8
3D-GLAZ
100
AcDbVertex
100
AcDbPolyFaceMeshVertex
 10
931.5693969726561
 20
419.4152069091796
 30
70.73004913330077
 70
   192
  0
VERTEX
  5
227
330
220
100
AcDbEntity
  8
3D-GLAZ
100
AcDbVertex
100
AcDbPolyFaceMeshVertex
 10
929.587921142578
 20
418.5330047607421
 30
71.21512985229491
 70
   192
  0
VERTEX
  5
228
330
220
100
AcDbEntity
  8
3D-GLAZ
100
AcDbVertex
100
AcDbPolyFaceMeshVertex
 10
927.4663696289061
 20
418.0820159912109
 30
71.73450851440428
 70
   192
  0
VERTEX
  5
229
330
220
100
AcDbEntity
  8
3D-GLAZ
100
AcDbVertex
100
AcDbPolyFaceMeshVertex
 10
925.297393798828
 20
418.0820159912109
 30
72.26549148559569
 70
   192
  0
VERTEX
  5
22A
330
220
100
AcDbEntity
  8
3D-GLAZ
100
AcDbVertex
100
AcDbPolyFaceMeshVertex
 10
923.1758422851561
 20
418.5330047607421
 30
72.78487014770506
 70
   192
  0
VERTEX
  5
22B
330
220
100
AcDbEntity
  8
3D-GLAZ
100
AcDbVertex
100
AcDbPolyFaceMeshVertex
 10
921.194366455078
 20
419.4152069091796
 30
73.2699508666992
 70
   192
  0
VERTEX
  5
22C
330
220
100
AcDbEntity
  8
3D-GLAZ
100
AcDbVertex
100
AcDbPolyFaceMeshVertex
 10
919.4396667480468
 20
420.6900787353515
 30
73.6995220184326
 70
   192
  0
VERTEX
  5
22D
330
220
100
AcDbEntity
  8
3D-GLAZ
100
AcDbVertex
100
AcDbPolyFaceMeshVertex
 10
917.9883728027343
 20
422.3019104003906
 30
74.05482101440428
 70
   192
  0
VERTEX
  5
22E
330
220
100
AcDbEntity
  8
3D-GLAZ
100
AcDbVertex
100
AcDbPolyFaceMeshVertex
 10
916.903839111328
 20
424.1802978515624
 30
74.32031249999999
 70
   192
  0
VERTEX
  5
22F
330
220
100
AcDbEntity
  8
3D-GLAZ
100
AcDbVertex
100
AcDbPolyFaceMeshVertex
 10
916.233673095703
 20
426.2431182861328
 30
74.48439788818358
 70
   192
  0
VERTEX
  5
230
330
220
100
AcDbEntity
  8
3D-GLAZ
100
AcDbVertex
100
AcDbPolyFaceMeshVertex
 10
916.0068969726561
 20
428.4001922607421
 30
74.53989601135252
 70
   192
  0
VERTEX
  5
231
330
220
100
AcDbEntity
  8
3D-GLAZ
100
AcDbVertex
100
AcDbPolyFaceMeshVertex
 10
891.006866455078
 20
428.4001922607421
 30
26.53989887237548
 70
   192
  0
VERTEX
  5
232
330
220
100
AcDbEntity
  8
3D-GLAZ
100
AcDbVertex
100
AcDbPolyFaceMeshVertex
 10
891.2336425781249
 20
426.2431182861328
 30
26.48439502716064
 70
   192
  0
VERTEX
  5
233
330
220
100
AcDbEntity
  8
3D-GLAZ
100
AcDbVertex
100
AcDbPolyFaceMeshVertex
 10
891.9039001464843
 20
424.1802978515624
 30
26.3203125
 70
   192
  0
VERTEX
  5
234
330
220
100
AcDbEntity
  8
3D-GLAZ
100
AcDbVertex
100
AcDbPolyFaceMeshVertex
 10
892.9883422851561
 20
422.3019104003906
 30
26.05482101440429
 70
   192
  0
VERTEX
  5
235
330
220
100
AcDbEntity
  8
3D-GLAZ
100
AcDbVertex
100
AcDbPolyFaceMeshVertex
 10
894.4396362304686
 20
420.6900787353515
 30
25.69952487945556
 70
   192
  0
VERTEX
  5
236
330
220
100
AcDbEntity
  8
3D-GLAZ
100
AcDbVertex
100
AcDbPolyFaceMeshVertex
 10
896.1944274902343
 20
419.4152069091796
 30
25.26994800567627
 70
   192
  0
VERTEX
  5
237
330
220
100
AcDbEntity
  8
3D-GLAZ
100
AcDbVertex
100
AcDbPolyFaceMeshVertex
 10
898.175811767578
 20
418.5330047607421
 30
24.78487300872802
 70
   192
  0
VERTEX
  5
238
330
220
100
AcDbEntity
  8
3D-GLAZ
100
AcDbVertex
100
AcDbPolyFaceMeshVertex
 10
900.2974548339843
 20
418.0820159912109
 30
24.2654914855957
 70
   192
  0
VERTEX
  5
239
330
220
100
AcDbEntity
  8
3D-GLAZ
100
AcDbVertex
100
AcDbPolyFaceMeshVertex
 10
902.4664306640624
 20
418.0820159912109
 30
23.73450851440429
 70
   192
  0
VERTEX
  5
23A
330
220
100
AcDbEntity
  8
3D-GLAZ
100
AcDbVertex
100
AcDbPolyFaceMeshVertex
 10
904.5879821777343
 20
418.5330047607421
 30
23.21512842178344
 70
   192
  0
VERTEX
  5
23B
330
220
100
AcDbEntity
  8
3D-GLAZ
100
AcDbVertex
100
AcDbPolyFaceMeshVertex
 10
906.569366455078
 20
419.4152069091796
 30
22.73005056381225
 70
   192
  0
VERTEX
  5
23C
330
220
100
AcDbEntity
  8
3D-GLAZ
100
AcDbVertex
100
AcDbPolyFaceMeshVertex
 10
908.3241577148436
 20
420.6900787353515
 30
22.3004765510559
 70
   192
  0
VERTEX
  5
23D
330
220
100
AcDbEntity
  8
3D-GLAZ
100
AcDbVertex
100
AcDbPolyFaceMeshVertex
 10
909.7754516601561
 20
422.3019104003906
 30
21.9451789855957
 70
   192
  0
VERTEX
  5
23E
330
220
100
AcDbEntity
  8
3D-GLAZ
100
AcDbVertex
100
AcDbPolyFaceMeshVertex
 10
910.8599853515624
 20
424.1802978515624
 30
21.6796875
 70
   192
  0
VERTEX
  5
23F
330
220
100
AcDbEntity
  8
3D-GLAZ
100
AcDbVertex
100
AcDbPolyFaceMeshVertex
 10
911.5301513671874
 20
426.2431182861328
 30
21.51560497283935
 70
   192
  0
VERTEX
  5
240
330
220
100
AcDbEntity
  8
3D-GLAZ
100
AcDbVertex
100
AcDbPolyFaceMeshVertex
 10
911.7569274902343
 20
428.4001922607421
 30
21.46010255813598
 70
   192
  0
VERTEX
  5
241
330
220
100
AcDbEntity
  8
3D-GLAZ
100
AcDbFaceRecord
 10
0.0
 20
0.0
 30
0.0
 70
   128
 71
    18
 72
    17
 73
    16
 74
   -15
  0
VERTEX
  5
242
330
220
100
AcDbEntity
  8
3D-GLAZ
100
AcDbFaceRecord
 10
0.0
 20
0.0
 30
0.0
 70
   128
 71
    19
 72
   -18
 73
   -15
  0
VERTEX
  5
243
330
220
100
AcDbEntity
  8
3D-GLAZ
100
AcDbFaceRecord
 10
0.0
 20
0.0
 30
0.0
 70
   128
 71
   -19
 72
   -14
 73
    20
  0
VERTEX
  5
244
330
220
100
AcDbEntity
  8
3D-GLAZ
100
AcDbFaceRecord
 10
0.0
 20
0.0
 30
0.0
 70
   128
 71
    22
 72
   -21
 73
   -12
  0
VERTEX
  5
245
330
220
100
AcDbEntity
  8
3D-GLAZ
100
AcDbFaceRecord
 10
0.0
 20
0.0
 30
0.0
 70
   128
 71
   -11
 72
    23
 73
   -22
  0
VERTEX
  5
246
330
220
100
AcDbEntity
  8
3D-GLAZ
100
AcDbFaceRecord
 10
0.0
 20
0.0
 30
0.0
 70
   128
 71
   -20
 72
   -13
 73
    21
  0
VERTEX
  5
247
330
220
100
AcDbEntity
  8
3D-GLAZ
100
AcDbFaceRecord
 10
0.0
 20
0.0
 30
0.0
 70
   128
 71
    24
 72
   -23
 73
   -10
  0
VERTEX
  5
248
330
220
100
AcDbEntity
  8
3D-GLAZ
100
AcDbFaceRecord
 10
0.0
 20
0.0
 30
0.0
 70
   128
 71
   -20
 72
    14
 73
   -13
  0
VERTEX
  5
249
330
220
100
AcDbEntity
  8
3D-GLAZ
100
AcDbFaceRecord
 10
0.0
 20
0.0
 30
0.0
 70
   128
 71
   -14
 72
   -19
 73
    15
  0
VERTEX
  5
24A
330
220
100
AcDbEntity
  8
3D-GLAZ
100
AcDbFaceRecord
 10
0.0
 20
0.0
 30
0.0
 70
   128
 71
   -22
 72
    12
 73
   -11
  0
VERTEX
  5
24B
330
220
100
AcDbEntity
  8
3D-GLAZ
100
AcDbFaceRecord
 10
0.0
 20
0.0
 30
0.0
 70
   128
 71
   -24
 72
    10
 73
    -9
  0
VERTEX
  5
24C
330
220
100
AcDbEntity
  8
3D-GLAZ
100
AcDbFaceRecord
 10
0.0
 20
0.0
 30
0.0
 70
   128
 71
   -10
 72
   -23
 73
    11
  0
VERTEX
  5
24D
330
220
100
AcDbEntity
  8
3D-GLAZ
100
AcDbFaceRecord
 10
0.0
 20
0.0
 30
0.0
 70
   128
 71
   -12
 72
   -21
 73
    13
  0
VERTEX
  5
24E
330
220
100
AcDbEntity
  8
3D-GLAZ
100
AcDbFaceRecord
 10
0.0
 20
0.0
 30
0.0
 70
   128
 71
    25
 72
   -24
 73
     9
 74
    -8
  0
VERTEX
  5
24F
330
220
100
AcDbEntity
  8
3D-GLAZ
100
AcDbFaceRecord
 10
0.0
 20
0.0
 30
0.0
 70
   128
 71
    26
 72
   -25
 73
     8
 74
    -7
  0
VERTEX
  5
250
330
220
100
AcDbEntity
  8
3D-GLAZ
100
AcDbFaceRecord
 10
0.0
 20
0.0
 30
0.0
 70
   128
 71
    -6
 72
    28
 73
   -27
  0
VERTEX
  5
251
330
220
100
AcDbEntity
  8
3D-GLAZ
100
AcDbFaceRecord
 10
0.0
 20
0.0
 30
0.0
 70
   128
 71
    -7
 72
    27
 73
   -26
  0
VERTEX
  5
252
330
220
100
AcDbEntity
  8
3D-GLAZ
100
AcDbFaceRecord
 10
0.0
 20
0.0
 30
0.0
 70
   128
 71
    -4
 72
    30
 73
   -29
  0
VERTEX
  5
253
330
220
100
AcDbEntity
  8
3D-GLAZ
100
AcDbFaceRecord
 10
0.0
 20
0.0
 30
0.0
 70
   128
 71
    -2
 72
    32
 73
   -31
  0
VERTEX
  5
254
330
220
100
AcDbEntity
  8
3D-GLAZ
100
AcDbFaceRecord
 10
0.0
 20
0.0
 30
0.0
 70
   128
 71
    -3
 72
    31
 73
   -30
  0
VERTEX
  5
255
330
220
100
AcDbEntity
  8
3D-GLAZ
100
AcDbFaceRecord
 10
0.0
 20
0.0
 30
0.0
 70
   128
 71
    -5
 72
    29
 73
   -28
  0
VERTEX
  5
256
330
220
100
AcDbEntity
  8
3D-GLAZ
100
AcDbFaceRecord
 10
0.0
 20
0.0
 30
0.0
 70
   128
 71
   -27
 72
     7
 73
    -6
  0
VERTEX
  5
257
330
220
100
AcDbEntity
  8
3D-GLAZ
100
AcDbFaceRecord
 10
0.0
 20
0.0
 30
0.0
 70
   128
 71
   -28
 72
     6
 73
    -5
  0
VERTEX
  5
258
330
220
100
AcDbEntity
  8
3D-GLAZ
100
AcDbFaceRecord
 10
0.0
 20
0.0
 30
0.0
 70
   128
 71
    -3
 72
   -30
 73
     4
  0
VERTEX
  5
259
330
220
100
AcDbEntity
  8
3D-GLAZ
100
AcDbFaceRecord
 10
0.0
 20
0.0
 30
0.0
 70
   128
 71
   -31
 72
     3
 73
    -2
  0
VERTEX
  5
25A
330
220
100
AcDbEntity
  8
3D-GLAZ
100
AcDbFaceRecord
 10
0.0
 20
0.0
 30
0.0
 70
   128
 71
    -4
 72
   -29
 73
     5
  0
VERTEX
  5
25B
330
220
100
AcDbEntity
  8
3D-GLAZ
100
AcDbFaceRecord
 10
0.0
 20
0.0
 30
0.0
 70
   128
 71
     1
 72
   -32
 73
     2
  0
SEQEND
  5
25C
330
220
100
AcDbEntity
  8
3D-GLAZ
  0
POLYLINE
  5
25D
330
75
100
AcDbEntity
  8
3D-GLAZ
100
AcDbPolyFaceMesh
 66
     1
 10
0.0
 20
0.0
 30
0.0
 70
    64
 71
    32
 72
    28
1001
REVIT
1002
{
1070
     1
1000
8352
1002
}
1002
{
1070
     4
1000
10191
1002
}
1002
{
1070
     2
1000
-2000014
1002
}
  0
VERTEX
  5
25E
330
25D
100
AcDbEntity
  8
3D-GLAZ
100
AcDbVertex
100
AcDbPolyFaceMeshVertex
 10
916.0068969726561
 20
428.4001922607421
 30
74.53989601135252
 70
   192
  0
VERTEX
  5
25F
330
25D
100
AcDbEntity
  8
3D-GLAZ
100
AcDbVertex
100
AcDbPolyFaceMeshVertex
 10
916.233673095703
 20
430.5572662353515
 30
74.48439788818358
 70
   192
  0
VERTEX
  5
260
330
25D
100
AcDbEntity
  8
3D-GLAZ
100
AcDbVertex
100
AcDbPolyFaceMeshVertex
 10
916.903839111328
 20
432.6200866699218
 30
74.32031249999999
 70
   192
  0
VERTEX
  5
261
330
25D
100
AcDbEntity
  8
3D-GLAZ
100
AcDbVertex
100
AcDbPolyFaceMeshVertex
 10
917.9883728027343
 20
434.4984741210937
 30
74.05482101440428
 70
   192
  0
VERTEX
  5
262
330
25D
100
AcDbEntity
  8
3D-GLAZ
100
AcDbVertex
100
AcDbPolyFaceMeshVertex
 10
919.4396667480468
 20
436.1103515624999
 30
73.6995220184326
 70
   192
  0
VERTEX
  5
263
330
25D
100
AcDbEntity
  8
3D-GLAZ
100
AcDbVertex
100
AcDbPolyFaceMeshVertex
 10
921.194366455078
 20
437.3852233886718
 30
73.2699508666992
 70
   192
  0
VERTEX
  5
264
330
25D
100
AcDbEntity
  8
3D-GLAZ
100
AcDbVertex
100
AcDbPolyFaceMeshVertex
 10
923.1758422851561
 20
438.2674255371093
 30
72.78487014770506
 70
   192
  0
VERTEX
  5
265
330
25D
100
AcDbEntity
  8
3D-GLAZ
100
AcDbVertex
100
AcDbPolyFaceMeshVertex
 10
925.297393798828
 20
438.7183685302734
 30
72.26549148559569
 70
   192
  0
VERTEX
  5
266
330
25D
100
AcDbEntity
  8
3D-GLAZ
100
AcDbVertex
100
AcDbPolyFaceMeshVertex
 10
927.4663696289061
 20
438.7183685302734
 30
71.73450851440428
 70
   192
  0
VERTEX
  5
267
330
25D
100
AcDbEntity
  8
3D-GLAZ
100
AcDbVertex
100
AcDbPolyFaceMeshVertex
 10
929.587921142578
 20
438.2674255371093
 30
71.21512985229491
 70
   192
  0
VERTEX
  5
268
330
25D
100
AcDbEntity
  8
3D-GLAZ
100
AcDbVertex
100
AcDbPolyFaceMeshVertex
 10
931.5693969726561
 20
437.3852233886718
 30
70.73004913330077
 70
   192
  0
VERTEX
  5
269
330
25D
100
AcDbEntity
  8
3D-GLAZ
100
AcDbVertex
100
AcDbPolyFaceMeshVertex
 10
933.3240966796874
 20
436.1103515624999
 30
70.30047798156737
 70
   192
  0
VERTEX
  5
26A
330
25D
100
AcDbEntity
  8
3D-GLAZ
100
AcDbVertex
100
AcDbPolyFaceMeshVertex
 10
934.7754821777343
 20
434.4984741210937
 30
69.94517898559569
 70
   192
  0
VERTEX
  5
26B
330
25D
100
AcDbEntity
  8
3D-GLAZ
100
AcDbVertex
100
AcDbPolyFaceMeshVertex
 10
935.8599243164061
 20
432.6200866699218
 30
69.67968749999999
 70
   192
  0
VERTEX
  5
26C
330
25D
100
AcDbEntity
  8
3D-GLAZ
100
AcDbVertex
100
AcDbPolyFaceMeshVertex
 10
936.5301818847655
 20
430.5572662353515
 30
69.51560211181639
 70
   192
  0
VERTEX
  5
26D
330
25D
100
AcDbEntity
  8
3D-GLAZ
100
AcDbVertex
100
AcDbPolyFaceMeshVertex
 10
936.756866455078
 20
428.4001922607421
 30
69.46010398864745
 70
   192
  0
VERTEX
  5
26E
330
25D
100
AcDbEntity
  8
3D-GLAZ
100
AcDbVertex
100
AcDbPolyFaceMeshVertex
 10
911.7569274902343
 20
428.4001922607421
 30
21.46010255813598
 70
   192
  0
VERTEX
  5
26F
330
25D
100
AcDbEntity
  8
3D-GLAZ
100
AcDbVertex
100
AcDbPolyFaceMeshVertex
 10
911.5301513671874
 20
430.5572662353515
 30
21.51560497283935
 70
   192
  0
VERTEX
  5
270
330
25D
100
AcDbEntity
  8
3D-GLAZ
100
AcDbVertex
100
AcDbPolyFaceMeshVertex
 10
910.8599853515624
 20
432.6200866699218
 30
21.6796875
 70
   192
  0
VERTEX
  5
271
330
25D
100
AcDbEntity
  8
3D-GLAZ
100
AcDbVertex
100
AcDbPolyFaceMeshVertex
 10
909.7754516601561
 20
434.4984741210937
 30
21.9451789855957
 70
   192
  0
VERTEX
  5
272
330
25D
100
AcDbEntity
  8
3D-GLAZ
100
AcDbVertex
100
AcDbPolyFaceMeshVertex
 10
908.3241577148436
 20
436.1103515624999
 30
22.3004765510559
 70
   192
  0
VERTEX
  5
273
330
25D
100
AcDbEntity
  8
3D-GLAZ
100
AcDbVertex
100
AcDbPolyFaceMeshVertex
 10
906.569366455078
 20
437.3852233886718
 30
22.73005056381225
 70
   192
  0
VERTEX
  5
274
330
25D
100
AcDbEntity
  8
3D-GLAZ
100
AcDbVertex
100
AcDbPolyFaceMeshVertex
 10
904.5879821777343
 20
438.2674255371093
 30
23.21512842178344
 70
   192
  0
VERTEX
  5
275
330
25D
100
AcDbEntity
  8
3D-GLAZ
100
AcDbVertex
100
AcDbPolyFaceMeshVertex
 10
902.4664306640624
 20
438.7183685302734
 30
23.73450851440429
 70
   192
  0
VERTEX
  5
276
330
25D
100
AcDbEntity
  8
3D-GLAZ
100
AcDbVertex
100
AcDbPolyFaceMeshVertex
 10
900.2974548339843
 20
438.7183685302734
 30
24.2654914855957
 70
   192
  0
VERTEX
  5
277
330
25D
100
AcDbEntity
  8
3D-GLAZ
100
AcDbVertex
100
AcDbPolyFaceMeshVertex
 10
898.175811767578
 20
438.2674255371093
 30
24.78487300872802
 70
   192
  0
VERTEX
  5
278
330
25D
100
AcDbEntity
  8
3D-GLAZ
100
AcDbVertex
100
AcDbPolyFaceMeshVertex
 10
896.1944274902343
 20
437.3852233886718
 30
25.26994800567627
 70
   192
  0
VERTEX
  5
279
330
25D
100
AcDbEntity
  8
3D-GLAZ
100
AcDbVertex
100
AcDbPolyFaceMeshVertex
 10
894.4396362304686
 20
436.1103515624999
 30
25.69952487945556
 70
   192
  0
VERTEX
  5
27A
330
25D
100
AcDbEntity
  8
3D-GLAZ
100
AcDbVertex
100
AcDbPolyFaceMeshVertex
 10
892.9883422851561
 20
434.4984741210937
 30
26.05482101440429
 70
   192
  0
VERTEX
  5
27B
330
25D
100
AcDbEntity
  8
3D-GLAZ
100
AcDbVertex
100
AcDbPolyFaceMeshVertex
 10
891.9039001464843
 20
432.6200866699218
 30
26.3203125
 70
   192
  0
VERTEX
  5
27C
330
25D
100
AcDbEntity
  8
3D-GLAZ
100
AcDbVertex
100
AcDbPolyFaceMeshVertex
 10
891.2336425781249
 20
430.5572662353515
 30
26.48439502716064
 70
   192
  0
VERTEX
  5
27D
330
25D
100
AcDbEntity
  8
3D-GLAZ
100
AcDbVertex
100
AcDbPolyFaceMeshVertex
 10
891.006866455078
 20
428.4001922607421
 30
26.53989887237548
 70
   192
  0
VERTEX
  5
27E
330
25D
100
AcDbEntity
  8
3D-GLAZ
100
AcDbFaceRecord
 10
0.0
 20
0.0
 30
0.0
 70
   128
 71
   -13
 72
    20
 73
   -19
  0
VERTEX
  5
27F
330
25D
100
AcDbEntity
  8
3D-GLAZ
100
AcDbFaceRecord
 10
0.0
 20
0.0
 30
0.0
 70
   128
 71
   -15
 72
    18
 73
   -17
  0
VERTEX
  5
280
330
25D
100
AcDbEntity
  8
3D-GLAZ
100
AcDbFaceRecord
 10
0.0
 20
0.0
 30
0.0
 70
   128
 71
   -18
 72
   -14
 73
    19
  0
VERTEX
  5
281
330
25D
100
AcDbEntity
  8
3D-GLAZ
100
AcDbFaceRecord
 10
0.0
 20
0.0
 30
0.0
 70
   128
 71
    -9
 72
    24
 73
   -23
 74
    10
  0
VERTEX
  5
282
330
25D
100
AcDbEntity
  8
3D-GLAZ
100
AcDbFaceRecord
 10
0.0
 20
0.0
 30
0.0
 70
   128
 71
   -11
 72
    22
 73
   -21
  0
VERTEX
  5
283
330
25D
100
AcDbEntity
  8
3D-GLAZ
100
AcDbFaceRecord
 10
0.0
 20
0.0
 30
0.0
 70
   128
 71
   -22
 72
   -10
 73
    23
  0
VERTEX
  5
284
330
25D
100
AcDbEntity
  8
3D-GLAZ
100
AcDbFaceRecord
 10
0.0
 20
0.0
 30
0.0
 70
   128
 71
   -12
 72
    21
 73
   -20
  0
VERTEX
  5
285
330
25D
100
AcDbEntity
  8
3D-GLAZ
100
AcDbFaceRecord
 10
0.0
 20
0.0
 30
0.0
 70
   128
 71
   -14
 72
   -18
 73
    15
  0
VERTEX
  5
286
330
25D
100
AcDbEntity
  8
3D-GLAZ
100
AcDbFaceRecord
 10
0.0
 20
0.0
 30
0.0
 70
   128
 71
   -15
 72
    17
 73
    16
  0
VERTEX
  5
287
330
25D
100
AcDbEntity
  8
3D-GLAZ
100
AcDbFaceRecord
 10
0.0
 20
0.0
 30
0.0
 70
   128
 71
    14
 72
   -13
 73
   -19
  0
VERTEX
  5
288
330
25D
100
AcDbEntity
  8
3D-GLAZ
100
AcDbFaceRecord
 10
0.0
 20
0.0
 30
0.0
 70
   128
 71
    12
 72
   -11
 73
   -21
  0
VERTEX
  5
289
330
25D
100
AcDbEntity
  8
3D-GLAZ
100
AcDbFaceRecord
 10
0.0
 20
0.0
 30
0.0
 70
   128
 71
    13
 72
   -12
 73
   -20
  0
VERTEX
  5
28A
330
25D
100
AcDbEntity
  8
3D-GLAZ
100
AcDbFaceRecord
 10
0.0
 20
0.0
 30
0.0
 70
   128
 71
    11
 72
   -10
 73
   -22
  0
VERTEX
  5
28B
330
25D
100
AcDbEntity
  8
3D-GLAZ
100
AcDbFaceRecord
 10
0.0
 20
0.0
 30
0.0
 70
   128
 71
   -24
 72
     9
 73
    -8
 74
    25
  0
VERTEX
  5
28C
330
25D
100
AcDbEntity
  8
3D-GLAZ
100
AcDbFaceRecord
 10
0.0
 20
0.0
 30
0.0
 70
   128
 71
    27
 72
   -26
 73
    -6
  0
VERTEX
  5
28D
330
25D
100
AcDbEntity
  8
3D-GLAZ
100
AcDbFaceRecord
 10
0.0
 20
0.0
 30
0.0
 70
   128
 71
   -25
 72
    -7
 73
    26
  0
VERTEX
  5
28E
330
25D
100
AcDbEntity
  8
3D-GLAZ
100
AcDbFaceRecord
 10
0.0
 20
0.0
 30
0.0
 70
   128
 71
   -27
 72
    -5
 73
    28
  0
VERTEX
  5
28F
330
25D
100
AcDbEntity
  8
3D-GLAZ
100
AcDbFaceRecord
 10
0.0
 20
0.0
 30
0.0
 70
   128
 71
    -2
 72
    31
 73
   -30
  0
VERTEX
  5
290
330
25D
100
AcDbEntity
  8
3D-GLAZ
100
AcDbFaceRecord
 10
0.0
 20
0.0
 30
0.0
 70
   128
 71
    30
 72
   -29
 73
    -3
  0
VERTEX
  5
291
330
25D
100
AcDbEntity
  8
3D-GLAZ
100
AcDbFaceRecord
 10
0.0
 20
0.0
 30
0.0
 70
   128
 71
   -28
 72
    -4
 73
    29
  0
VERTEX
  5
292
330
25D
100
AcDbEntity
  8
3D-GLAZ
100
AcDbFaceRecord
 10
0.0
 20
0.0
 30
0.0
 70
   128
 71
     1
 72
    32
 73
   -31
  0
VERTEX
  5
293
330
25D
100
AcDbEntity
  8
3D-GLAZ
100
AcDbFaceRecord
 10
0.0
 20
0.0
 30
0.0
 70
   128
 71
   -27
 72
     6
 73
    -5
  0
VERTEX
  5
294
330
25D
100
AcDbEntity
  8
3D-GLAZ
100
AcDbFaceRecord
 10
0.0
 20
0.0
 30
0.0
 70
   128
 71
   -25
 72
     8
 73
    -7
  0
VERTEX
  5
295
330
25D
100
AcDbEntity
  8
3D-GLAZ
100
AcDbFaceRecord
 10
0.0
 20
0.0
 30
0.0
 70
   128
 71
   -26
 72
     7
 73
    -6
  0
VERTEX
  5
296
330
25D
100
AcDbEntity
  8
3D-GLAZ
100
AcDbFaceRecord
 10
0.0
 20
0.0
 30
0.0
 70
   128
 71
   -31
 72
     2
 73
    -1
  0
VERTEX
  5
297
330
25D
100
AcDbEntity
  8
3D-GLAZ
100
AcDbFaceRecord
 10
0.0
 20
0.0
 30
0.0
 70
   128
 71
   -29
 72
     4
 73
    -3
  0
VERTEX
  5
298
330
25D
100
AcDbEntity
  8
3D-GLAZ
100
AcDbFaceRecord
 10
0.0
 20
0.0
 30
0.0
 70
   128
 71
   -30
 72
     3
 73
    -2
  0
VERTEX
  5
299
330
25D
100
AcDbEntity
  8
3D-GLAZ
100
AcDbFaceRecord
 10
0.0
 20
0.0
 30
0.0
 70
   128
 71
    -4
 72
   -28
 73
     5
  0
SEQEND
  5
29A
330
25D
100
AcDbEntity
  8
3D-GLAZ
  0
POLYLINE
  5
29B
330
75
100
AcDbEntity
  8
3D-GLAZ
100
AcDbPolyFaceMesh
 66
     1
 10
0.0
 20
0.0
 30
0.0
 70
    64
 71
    60
 72
    30
1001
REVIT
1002
{
1070
     1
1000
8352
1002
}
1002
{
1070
     4
1000
10191
1002
}
1002
{
1070
     2
1000
-2000014
1002
}
  0
VERTEX
  5
29C
330
29B
100
AcDbEntity
  8
3D-GLAZ
100
AcDbVertex
100
AcDbPolyFaceMeshVertex
 10
936.8819274902343
 20
428.4001922607421
 30
95.99999999999999
 70
   192
  0
VERTEX
  5
29D
330
29B
100
AcDbEntity
  8
3D-GLAZ
100
AcDbVertex
100
AcDbPolyFaceMeshVertex
 10
936.6524963378905
 20
430.583267211914
 30
95.99999999999999
 70
   192
  0
VERTEX
  5
29E
330
29B
100
AcDbEntity
  8
3D-GLAZ
100
AcDbVertex
100
AcDbPolyFaceMeshVertex
 10
935.9740905761718
 20
432.6709442138671
 30
95.99999999999999
 70
   192
  0
VERTEX
  5
29F
330
29B
100
AcDbEntity
  8
3D-GLAZ
100
AcDbVertex
100
AcDbPolyFaceMeshVertex
 10
934.8765563964843
 20
434.5719451904296
 30
95.99999999999999
 70
   192
  0
VERTEX
  5
2A0
330
29B
100
AcDbEntity
  8
3D-GLAZ
100
AcDbVertex
100
AcDbPolyFaceMeshVertex
 10
933.4077758789061
 20
436.2032318115234
 30
95.99999999999999
 70
   192
  0
VERTEX
  5
2A1
330
29B
100
AcDbEntity
  8
3D-GLAZ
100
AcDbVertex
100
AcDbPolyFaceMeshVertex
 10
931.6319274902343
 20
437.4934844970703
 30
95.99999999999999
 70
   192
  0
VERTEX
  5
2A2
330
29B
100
AcDbEntity
  8
3D-GLAZ
100
AcDbVertex
100
AcDbPolyFaceMeshVertex
 10
929.6265563964843
 20
438.3863067626953
 30
95.99999999999999
 70
   192
  0
VERTEX
  5
2A3
330
29B
100
AcDbEntity
  8
3D-GLAZ
100
AcDbVertex
100
AcDbPolyFaceMeshVertex
 10
927.4794616699218
 20
438.8426971435546
 30
95.99999999999999
 70
   192
  0
VERTEX
  5
2A4
330
29B
100
AcDbEntity
  8
3D-GLAZ
100
AcDbVertex
100
AcDbPolyFaceMeshVertex
 10
925.2843933105468
 20
438.8426971435546
 30
95.99999999999999
 70
   192
  0
VERTEX
  5
2A5
330
29B
100
AcDbEntity
  8
3D-GLAZ
100
AcDbVertex
100
AcDbPolyFaceMeshVertex
 10
923.1372070312499
 20
438.3863067626953
 30
95.99999999999999
 70
   192
  0
VERTEX
  5
2A6
330
29B
100
AcDbEntity
  8
3D-GLAZ
100
AcDbVertex
100
AcDbPolyFaceMeshVertex
 10
921.1319274902343
 20
437.4934844970703
 30
95.99999999999999
 70
   192
  0
VERTEX
  5
2A7
330
29B
100
AcDbEntity
  8
3D-GLAZ
100
AcDbVertex
100
AcDbPolyFaceMeshVertex
 10
919.3560791015624
 20
436.2032318115234
 30
95.99999999999999
 70
   192
  0
VERTEX
  5
2A8
330
29B
100
AcDbEntity
  8
3D-GLAZ
100
AcDbVertex
100
AcDbPolyFaceMeshVertex
 10
917.8872070312499
 20
434.5719451904296
 30
95.99999999999999
 70
   192
  0
VERTEX
  5
2A9
330
29B
100
AcDbEntity
  8
3D-GLAZ
100
AcDbVertex
100
AcDbPolyFaceMeshVertex
 10
916.7896728515624
 20
432.6709442138671
 30
95.99999999999999
 70
   192
  0
VERTEX
  5
2AA
330
29B
100
AcDbEntity
  8
3D-GLAZ
100
AcDbVertex
100
AcDbPolyFaceMeshVertex
 10
916.111358642578
 20
430.583267211914
 30
95.99999999999999
 70
   192
  0
VERTEX
  5
2AB
330
29B
100
AcDbEntity
  8
3D-GLAZ
100
AcDbVertex
100
AcDbPolyFaceMeshVertex
 10
915.8819274902343
 20
428.4001922607421
 30
95.99999999999999
 70
   192
  0
VERTEX
  5
2AC
330
29B
100
AcDbEntity
  8
3D-GLAZ
100
AcDbVertex
100
AcDbPolyFaceMeshVertex
 10
916.111358642578
 20
426.2171173095703
 30
95.99999999999999
 70
   192
  0
VERTEX
  5
2AD
330
29B
100
AcDbEntity
  8
3D-GLAZ
100
AcDbVertex
100
AcDbPolyFaceMeshVertex
 10
916.7896728515624
 20
424.1294860839843
 30
95.99999999999999
 70
   192
  0
VERTEX
  5
2AE
330
29B
100
AcDbEntity
  8
3D-GLAZ
100
AcDbVertex
100
AcDbPolyFaceMeshVertex
 10
917.8872070312499
 20
422.2284393310546
 30
95.99999999999999
 70
   192
  0
VERTEX
  5
2AF
330
29B
100
AcDbEntity
  8
3D-GLAZ
100
AcDbVertex
100
AcDbPolyFaceMeshVertex
 10
919.3560791015624
 20
420.5971984863281
 30
95.99999999999999
 70
   192
  0
VERTEX
  5
2B0
330
29B
100
AcDbEntity
  8
3D-GLAZ
100
AcDbVertex
100
AcDbPolyFaceMeshVertex
 10
921.1319274902343
 20
419.3069458007812
 30
95.99999999999999
 70
   192
  0
VERTEX
  5
2B1
330
29B
100
AcDbEntity
  8
3D-GLAZ
100
AcDbVertex
100
AcDbPolyFaceMeshVertex
 10
923.1372070312499
 20
418.4141235351562
 30
95.99999999999999
 70
   192
  0
VERTEX
  5
2B2
330
29B
100
AcDbEntity
  8
3D-GLAZ
100
AcDbVertex
100
AcDbPolyFaceMeshVertex
 10
925.2843933105468
 20
417.9577331542968
 30
95.99999999999999
 70
   192
  0
VERTEX
  5
2B3
330
29B
100
AcDbEntity
  8
3D-GLAZ
100
AcDbVertex
100
AcDbPolyFaceMeshVertex
 10
927.4794616699218
 20
417.9577331542968
 30
95.99999999999999
 70
   192
  0
VERTEX
  5
2B4
330
29B
100
AcDbEntity
  8
3D-GLAZ
100
AcDbVertex
100
AcDbPolyFaceMeshVertex
 10
929.6265563964843
 20
418.4141235351562
 30
95.99999999999999
 70
   192
  0
VERTEX
  5
2B5
330
29B
100
AcDbEntity
  8
3D-GLAZ
100
AcDbVertex
100
AcDbPolyFaceMeshVertex
 10
931.6319274902343
 20
419.3069458007812
 30
95.99999999999999
 70
   192
  0
VERTEX
  5
2B6
330
29B
100
AcDbEntity
  8
3D-GLAZ
100
AcDbVertex
100
AcDbPolyFaceMeshVertex
 10
933.4077758789061
 20
420.5971984863281
 30
95.99999999999999
 70
   192
  0
VERTEX
  5
2B7
330
29B
100
AcDbEntity
  8
3D-GLAZ
100
AcDbVertex
100
AcDbPolyFaceMeshVertex
 10
934.8765563964843
 20
422.2284393310546
 30
95.99999999999999
 70
   192
  0
VERTEX
  5
2B8
330
29B
100
AcDbEntity
  8
3D-GLAZ
100
AcDbVertex
100
AcDbPolyFaceMeshVertex
 10
935.9740905761718
 20
424.1294860839843
 30
95.99999999999999
 70
   192
  0
VERTEX
  5
2B9
330
29B
100
AcDbEntity
  8
3D-GLAZ
100
AcDbVertex
100
AcDbPolyFaceMeshVertex
 10
936.6524963378905
 20
426.2171173095703
 30
95.99999999999999
 70
   192
  0
VERTEX
  5
2BA
330
29B
100
AcDbEntity
  8
3D-GLAZ
100
AcDbVertex
100
AcDbPolyFaceMeshVertex
 10
916.0068969726561
 20
428.4001922607421
 30
95.99999999999999
 70
   192
  0
VERTEX
  5
2BB
330
29B
100
AcDbEntity
  8
3D-GLAZ
100
AcDbVertex
100
AcDbPolyFaceMeshVertex
 10
916.233673095703
 20
430.5572662353515
 30
95.99999999999999
 70
   192
  0
VERTEX
  5
2BC
330
29B
100
AcDbEntity
  8
3D-GLAZ
100
AcDbVertex
100
AcDbPolyFaceMeshVertex
 10
916.903839111328
 20
432.6200866699218
 30
95.99999999999999
 70
   192
  0
VERTEX
  5
2BD
330
29B
100
AcDbEntity
  8
3D-GLAZ
100
AcDbVertex
100
AcDbPolyFaceMeshVertex
 10
917.9883728027343
 20
434.4984741210937
 30
95.99999999999999
 70
   192
  0
VERTEX
  5
2BE
330
29B
100
AcDbEntity
  8
3D-GLAZ
100
AcDbVertex
100
AcDbPolyFaceMeshVertex
 10
919.4396667480468
 20
436.1103515624999
 30
95.99999999999999
 70
   192
  0
VERTEX
  5
2BF
330
29B
100
AcDbEntity
  8
3D-GLAZ
100
AcDbVertex
100
AcDbPolyFaceMeshVertex
 10
921.194366455078
 20
437.3852233886718
 30
95.99999999999999
 70
   192
  0
VERTEX
  5
2C0
330
29B
100
AcDbEntity
  8
3D-GLAZ
100
AcDbVertex
100
AcDbPolyFaceMeshVertex
 10
923.1758422851561
 20
438.2674255371093
 30
95.99999999999999
 70
   192
  0
VERTEX
  5
2C1
330
29B
100
AcDbEntity
  8
3D-GLAZ
100
AcDbVertex
100
AcDbPolyFaceMeshVertex
 10
925.297393798828
 20
438.7183685302734
 30
95.99999999999999
 70
   192
  0
VERTEX
  5
2C2
330
29B
100
AcDbEntity
  8
3D-GLAZ
100
AcDbVertex
100
AcDbPolyFaceMeshVertex
 10
927.4663696289061
 20
438.7183685302734
 30
95.99999999999999
 70
   192
  0
VERTEX
  5
2C3
330
29B
100
AcDbEntity
  8
3D-GLAZ
100
AcDbVertex
100
AcDbPolyFaceMeshVertex
 10
929.587921142578
 20
438.2674255371093
 30
95.99999999999999
 70
   192
  0
VERTEX
  5
2C4
330
29B
100
AcDbEntity
  8
3D-GLAZ
100
AcDbVertex
100
AcDbPolyFaceMeshVertex
 10
931.5693969726561
 20
437.3852233886718
 30
95.99999999999999
 70
   192
  0
VERTEX
  5
2C5
330
29B
100
AcDbEntity
  8
3D-GLAZ
100
AcDbVertex
100
AcDbPolyFaceMeshVertex
 10
933.3240966796874
 20
436.1103515624999
 30
95.99999999999999
 70
   192
  0
VERTEX
  5
2C6
330
29B
100
AcDbEntity
  8
3D-GLAZ
100
AcDbVertex
100
AcDbPolyFaceMeshVertex
 10
934.7754821777343
 20
434.4984741210937
 30
95.99999999999999
 70
   192
  0
VERTEX
  5
2C7
330
29B
100
AcDbEntity
  8
3D-GLAZ
100
AcDbVertex
100
AcDbPolyFaceMeshVertex
 10
935.8599243164061
 20
432.6200866699218
 30
95.99999999999999
 70
   192
  0
VERTEX
  5
2C8
330
29B
100
AcDbEntity
  8
3D-GLAZ
100
AcDbVertex
100
AcDbPolyFaceMeshVertex
 10
936.5301818847655
 20
430.5572662353515
 30
95.99999999999999
 70
   192
  0
VERTEX
  5
2C9
330
29B
100
AcDbEntity
  8
3D-GLAZ
100
AcDbVertex
100
AcDbPolyFaceMeshVertex
 10
936.756866455078
 20
428.4001922607421
 30
95.99999999999999
 70
   192
  0
VERTEX
  5
2CA
330
29B
100
AcDbEntity
  8
3D-GLAZ
100
AcDbVertex
100
AcDbPolyFaceMeshVertex
 10
936.5301818847655
 20
426.2431182861328
 30
95.99999999999999
 70
   192
  0
VERTEX
  5
2CB
330
29B
100
AcDbEntity
  8
3D-GLAZ
100
AcDbVertex
100
AcDbPolyFaceMeshVertex
 10
935.8599243164061
 20
424.1802978515624
 30
95.99999999999999
 70
   192
  0
VERTEX
  5
2CC
330
29B
100
AcDbEntity
  8
3D-GLAZ
100
AcDbVertex
100
AcDbPolyFaceMeshVertex
 10
934.7754821777343
 20
422.3019104003906
 30
95.99999999999999
 70
   192
  0
VERTEX
  5
2CD
330
29B
100
AcDbEntity
  8
3D-GLAZ
100
AcDbVertex
100
AcDbPolyFaceMeshVertex
 10
933.3240966796874
 20
420.6900787353515
 30
95.99999999999999
 70
   192
  0
VERTEX
  5
2CE
330
29B
100
AcDbEntity
  8
3D-GLAZ
100
AcDbVertex
100
AcDbPolyFaceMeshVertex
 10
931.5693969726561
 20
419.4152069091796
 30
95.99999999999999
 70
   192
  0
VERTEX
  5
2CF
330
29B
100
AcDbEntity
  8
3D-GLAZ
100
AcDbVertex
100
AcDbPolyFaceMeshVertex
 10
929.587921142578
 20
418.5330047607421
 30
95.99999999999999
 70
   192
  0
VERTEX
  5
2D0
330
29B
100
AcDbEntity
  8
3D-GLAZ
100
AcDbVertex
100
AcDbPolyFaceMeshVertex
 10
927.4663696289061
 20
418.0820159912109
 30
95.99999999999999
 70
   192
  0
VERTEX
  5
2D1
330
29B
100
AcDbEntity
  8
3D-GLAZ
100
AcDbVertex
100
AcDbPolyFaceMeshVertex
 10
925.297393798828
 20
418.0820159912109
 30
95.99999999999999
 70
   192
  0
VERTEX
  5
2D2
330
29B
100
AcDbEntity
  8
3D-GLAZ
100
AcDbVertex
100
AcDbPolyFaceMeshVertex
 10
923.1758422851561
 20
418.5330047607421
 30
95.99999999999999
 70
   192
  0
VERTEX
  5
2D3
330
29B
100
AcDbEntity
  8
3D-GLAZ
100
AcDbVertex
100
AcDbPolyFaceMeshVertex
 10
921.194366455078
 20
419.4152069091796
 30
95.99999999999999
 70
   192
  0
VERTEX
  5
2D4
330
29B
100
AcDbEntity
  8
3D-GLAZ
100
AcDbVertex
100
AcDbPolyFaceMeshVertex
 10
919.4396667480468
 20
420.6900787353515
 30
95.99999999999999
 70
   192
  0
VERTEX
  5
2D5
330
29B
100
AcDbEntity
  8
3D-GLAZ
100
AcDbVertex
100
AcDbPolyFaceMeshVertex
 10
917.9883728027343
 20
422.3019104003906
 30
95.99999999999999
 70
   192
  0
VERTEX
  5
2D6
330
29B
100
AcDbEntity
  8
3D-GLAZ
100
AcDbVertex
100
AcDbPolyFaceMeshVertex
 10
916.903839111328
 20
424.1802978515624
 30
95.99999999999999
 70
   192
  0
VERTEX
  5
2D7
330
29B
100
AcDbEntity
  8
3D-GLAZ
100
AcDbVertex
100
AcDbPolyFaceMeshVertex
 10
916.233673095703
 20
426.2431182861328
 30
95.99999999999999
 70
   192
  0
VERTEX
  5
2D8
330
29B
100
AcDbEntity
  8
3D-GLAZ
100
AcDbFaceRecord
 10
0.0
 20
0.0
 30
0.0
 70
   128
 71
   -36
 72
    11
 73
   -12
 74
    35
  0
VERTEX
  5
2D9
330
29B
100
AcDbEntity
  8
3D-GLAZ
100
AcDbFaceRecord
 10
0.0
 20
0.0
 30
0.0
 70
   128
 71
   -11
 72
    36
 73
   -37
 74
    10
  0
VERTEX
  5
2DA
330
29B
100
AcDbEntity
  8
3D-GLAZ
100
AcDbFaceRecord
 10
0.0
 20
0.0
 30
0.0
 70
   128
 71
    -9
 72
    38
 73
   -39
 74
     8
  0
VERTEX
  5
2DB
330
29B
100
AcDbEntity
  8
3D-GLAZ
100
AcDbFaceRecord
 10
0.0
 20
0.0
 30
0.0
 70
   128
 71
   -38
 72
     9
 73
   -10
 74
    37
  0
VERTEX
  5
2DC
330
29B
100
AcDbEntity
  8
3D-GLAZ
100
AcDbFaceRecord
 10
0.0
 20
0.0
 30
0.0
 70
   128
 71
    14
 72
   -15
 73
    32
 74
   -33
  0
VERTEX
  5
2DD
330
29B
100
AcDbEntity
  8
3D-GLAZ
100
AcDbFaceRecord
 10
0.0
 20
0.0
 30
0.0
 70
   128
 71
    31
 72
   -32
 73
    15
 74
   -16
  0
VERTEX
  5
2DE
330
29B
100
AcDbEntity
  8
3D-GLAZ
100
AcDbFaceRecord
 10
0.0
 20
0.0
 30
0.0
 70
   128
 71
   -13
 72
    34
 73
   -35
 74
    12
  0
VERTEX
  5
2DF
330
29B
100
AcDbEntity
  8
3D-GLAZ
100
AcDbFaceRecord
 10
0.0
 20
0.0
 30
0.0
 70
   128
 71
    33
 72
   -34
 73
    13
 74
   -14
  0
VERTEX
  5
2E0
330
29B
100
AcDbEntity
  8
3D-GLAZ
100
AcDbFaceRecord
 10
0.0
 20
0.0
 30
0.0
 70
   128
 71
    -8
 72
    39
 73
   -40
 74
     7
  0
VERTEX
  5
2E1
330
29B
100
AcDbEntity
  8
3D-GLAZ
100
AcDbFaceRecord
 10
0.0
 20
0.0
 30
0.0
 70
   128
 71
   -41
 72
     6
 73
    -7
 74
    40
  0
VERTEX
  5
2E2
330
29B
100
AcDbEntity
  8
3D-GLAZ
100
AcDbFaceRecord
 10
0.0
 20
0.0
 30
0.0
 70
   128
 71
   -42
 72
     5
 73
    -6
 74
    41
  0
VERTEX
  5
2E3
330
29B
100
AcDbEntity
  8
3D-GLAZ
100
AcDbFaceRecord
 10
0.0
 20
0.0
 30
0.0
 70
   128
 71
    -5
 72
    42
 73
   -43
 74
     4
  0
VERTEX
  5
2E4
330
29B
100
AcDbEntity
  8
3D-GLAZ
100
AcDbFaceRecord
 10
0.0
 20
0.0
 30
0.0
 70
   128
 71
    -4
 72
    43
 73
   -44
 74
     3
  0
VERTEX
  5
2E5
330
29B
100
AcDbEntity
  8
3D-GLAZ
100
AcDbFaceRecord
 10
0.0
 20
0.0
 30
0.0
 70
   128
 71
   -45
 72
     2
 73
    -3
 74
    44
  0
VERTEX
  5
2E6
330
29B
100
AcDbEntity
  8
3D-GLAZ
100
AcDbFaceRecord
 10
0.0
 20
0.0
 30
0.0
 70
   128
 71
    -2
 72
    45
 73
   -46
 74
     1
  0
VERTEX
  5
2E7
330
29B
100
AcDbEntity
  8
3D-GLAZ
100
AcDbFaceRecord
 10
0.0
 20
0.0
 30
0.0
 70
   128
 71
    16
 72
   -17
 73
    60
 74
   -31
  0
VERTEX
  5
2E8
330
29B
100
AcDbEntity
  8
3D-GLAZ
100
AcDbFaceRecord
 10
0.0
 20
0.0
 30
0.0
 70
   128
 71
    59
 72
   -60
 73
    17
 74
   -18
  0
VERTEX
  5
2E9
330
29B
100
AcDbEntity
  8
3D-GLAZ
100
AcDbFaceRecord
 10
0.0
 20
0.0
 30
0.0
 70
   128
 71
    58
 72
   -59
 73
    18
 74
   -19
  0
VERTEX
  5
2EA
330
29B
100
AcDbEntity
  8
3D-GLAZ
100
AcDbFaceRecord
 10
0.0
 20
0.0
 30
0.0
 70
   128
 71
    57
 72
   -58
 73
    19
 74
   -20
  0
VERTEX
  5
2EB
330
29B
100
AcDbEntity
  8
3D-GLAZ
100
AcDbFaceRecord
 10
0.0
 20
0.0
 30
0.0
 70
   128
 71
    56
 72
   -57
 73
    20
 74
   -21
  0
VERTEX
  5
2EC
330
29B
100
AcDbEntity
  8
3D-GLAZ
100
AcDbFaceRecord
 10
0.0
 20
0.0
 30
0.0
 70
   128
 71
    55
 72
   -56
 73
    21
 74
   -22
  0
VERTEX
  5
2ED
330
29B
100
AcDbEntity
  8
3D-GLAZ
100
AcDbFaceRecord
 10
0.0
 20
0.0
 30
0.0
 70
   128
 71
    54
 72
   -55
 73
    22
 74
   -23
  0
VERTEX
  5
2EE
330
29B
100
AcDbEntity
  8
3D-GLAZ
100
AcDbFaceRecord
 10
0.0
 20
0.0
 30
0.0
 70
   128
 71
    53
 72
   -54
 73
    23
 74
   -24
  0
VERTEX
  5
2EF
330
29B
100
AcDbEntity
  8
3D-GLAZ
100
AcDbFaceRecord
 10
0.0
 20
0.0
 30
0.0
 70
   128
 71
    48
 72
   -49
 73
    28
 74
   -29
  0
VERTEX
  5
2F0
330
29B
100
AcDbEntity
  8
3D-GLAZ
100
AcDbFaceRecord
 10
0.0
 20
0.0
 30
0.0
 70
   128
 71
    27
 72
   -28
 73
    49
 74
   -50
  0
VERTEX
  5
2F1
330
29B
100
AcDbEntity
  8
3D-GLAZ
100
AcDbFaceRecord
 10
0.0
 20
0.0
 30
0.0
 70
   128
 71
   -47
 72
    30
 73
    -1
 74
    46
  0
VERTEX
  5
2F2
330
29B
100
AcDbEntity
  8
3D-GLAZ
100
AcDbFaceRecord
 10
0.0
 20
0.0
 30
0.0
 70
   128
 71
   -30
 72
    47
 73
   -48
 74
    29
  0
VERTEX
  5
2F3
330
29B
100
AcDbEntity
  8
3D-GLAZ
100
AcDbFaceRecord
 10
0.0
 20
0.0
 30
0.0
 70
   128
 71
    51
 72
   -52
 73
    25
 74
   -26
  0
VERTEX
  5
2F4
330
29B
100
AcDbEntity
  8
3D-GLAZ
100
AcDbFaceRecord
 10
0.0
 20
0.0
 30
0.0
 70
   128
 71
    24
 72
   -25
 73
    52
 74
   -53
  0
VERTEX
  5
2F5
330
29B
100
AcDbEntity
  8
3D-GLAZ
100
AcDbFaceRecord
 10
0.0
 20
0.0
 30
0.0
 70
   128
 71
    26
 72
   -27
 73
    50
 74
   -51
  0
SEQEND
  5
2F6
330
29B
100
AcDbEntity
  8
3D-GLAZ
  0
POLYLINE
  5
2F7
330
75
100
AcDbEntity
  8
3D-GLAZ
100
AcDbPolyFaceMesh
 66
     1
 10
0.0
 20
0.0
 30
0.0
 70
    64
 71
    32
 72
    15
1001
REVIT
1002
{
1070
     1
1000
8352
1002
}
1002
{
1070
     4
1000
10191
1002
}
1002
{
1070
     2
1000
-2000014
1002
}
  0
VERTEX
  5
2F8
330
2F7
100
AcDbEntity
  8
3D-GLAZ
100
AcDbVertex
100
AcDbPolyFaceMeshVertex
 10
915.8819274902343
 20
428.4001922607421
 30
74.57049751281737
 70
   192
  0
VERTEX
  5
2F9
330
2F7
100
AcDbEntity
  8
3D-GLAZ
100
AcDbVertex
100
AcDbPolyFaceMeshVertex
 10
916.111358642578
 20
426.2171173095703
 30
74.5143299102783
 70
   192
  0
VERTEX
  5
2FA
330
2F7
100
AcDbEntity
  8
3D-GLAZ
100
AcDbVertex
100
AcDbPolyFaceMeshVertex
 10
916.7896728515624
 20
424.1294860839843
 30
74.34827041625975
 70
   192
  0
VERTEX
  5
2FB
330
2F7
100
AcDbEntity
  8
3D-GLAZ
100
AcDbVertex
100
AcDbPolyFaceMeshVertex
 10
917.8872070312499
 20
422.2284393310546
 30
74.07958030700682
 70
   192
  0
VERTEX
  5
2FC
330
2F7
100
AcDbEntity
  8
3D-GLAZ
100
AcDbVertex
100
AcDbPolyFaceMeshVertex
 10
919.3560791015624
 20
420.5971984863281
 30
73.72000122070311
 70
   192
  0
VERTEX
  5
2FD
330
2F7
100
AcDbEntity
  8
3D-GLAZ
100
AcDbVertex
100
AcDbPolyFaceMeshVertex
 10
921.1319274902343
 20
419.3069458007812
 30
73.28525161743163
 70
   192
  0
VERTEX
  5
2FE
330
2F7
100
AcDbEntity
  8
3D-GLAZ
100
AcDbVertex
100
AcDbPolyFaceMeshVertex
 10
923.1372070312499
 20
418.4141235351562
 30
72.79432868957518
 70
   192
  0
VERTEX
  5
2FF
330
2F7
100
AcDbEntity
  8
3D-GLAZ
100
AcDbVertex
100
AcDbPolyFaceMeshVertex
 10
925.2843933105468
 20
417.9577331542968
 30
72.26869010925292
 70
   192
  0
VERTEX
  5
300
330
2F7
100
AcDbEntity
  8
3D-GLAZ
100
AcDbVertex
100
AcDbPolyFaceMeshVertex
 10
927.4794616699218
 20
417.9577331542968
 30
71.73130989074706
 70
   192
  0
VERTEX
  5
301
330
2F7
100
AcDbEntity
  8
3D-GLAZ
100
AcDbVertex
100
AcDbPolyFaceMeshVertex
 10
929.6265563964843
 20
418.4141235351562
 30
71.20567131042479
 70
   192
  0
VERTEX
  5
302
330
2F7
100
AcDbEntity
  8
3D-GLAZ
100
AcDbVertex
100
AcDbPolyFaceMeshVertex
 10
931.6319274902343
 20
419.3069458007812
 30
70.71474838256835
 70
   192
  0
VERTEX
  5
303
330
2F7
100
AcDbEntity
  8
3D-GLAZ
100
AcDbVertex
100
AcDbPolyFaceMeshVertex
 10
933.4077758789061
 20
420.5971984863281
 30
70.27999877929686
 70
   192
  0
VERTEX
  5
304
330
2F7
100
AcDbEntity
  8
3D-GLAZ
100
AcDbVertex
100
AcDbPolyFaceMeshVertex
 10
934.8765563964843
 20
422.2284393310546
 30
69.92041969299315
 70
   192
  0
VERTEX
  5
305
330
2F7
100
AcDbEntity
  8
3D-GLAZ
100
AcDbVertex
100
AcDbPolyFaceMeshVertex
 10
935.9740905761718
 20
424.1294860839843
 30
69.65172958374022
 70
   192
  0
VERTEX
  5
306
330
2F7
100
AcDbEntity
  8
3D-GLAZ
100
AcDbVertex
100
AcDbPolyFaceMeshVertex
 10
936.6524963378905
 20
426.2171173095703
 30
69.48567008972167
 70
   192
  0
VERTEX
  5
307
330
2F7
100
AcDbEntity
  8
3D-GLAZ
100
AcDbVertex
100
AcDbPolyFaceMeshVertex
 10
936.8819274902343
 20
428.4001922607421
 30
69.4295024871826
 70
   192
  0
VERTEX
  5
308
330
2F7
100
AcDbEntity
  8
3D-GLAZ
100
AcDbVertex
100
AcDbPolyFaceMeshVertex
 10
936.8819274902343
 20
428.4001922607421
 30
95.99999999999999
 70
   192
  0
VERTEX
  5
309
330
2F7
100
AcDbEntity
  8
3D-GLAZ
100
AcDbVertex
100
AcDbPolyFaceMeshVertex
 10
936.6524963378905
 20
426.2171173095703
 30
95.99999999999999
 70
   192
  0
VERTEX
  5
30A
330
2F7
100
AcDbEntity
  8
3D-GLAZ
100
AcDbVertex
100
AcDbPolyFaceMeshVertex
 10
935.9740905761718
 20
424.1294860839843
 30
95.99999999999999
 70
   192
  0
VERTEX
  5
30B
330
2F7
100
AcDbEntity
  8
3D-GLAZ
100
AcDbVertex
100
AcDbPolyFaceMeshVertex
 10
934.8765563964843
 20
422.2284393310546
 30
95.99999999999999
 70
   192
  0
VERTEX
  5
30C
330
2F7
100
AcDbEntity
  8
3D-GLAZ
100
AcDbVertex
100
AcDbPolyFaceMeshVertex
 10
933.4077758789061
 20
420.5971984863281
 30
95.99999999999999
 70
   192
  0
VERTEX
  5
30D
330
2F7
100
AcDbEntity
  8
3D-GLAZ
100
AcDbVertex
100
AcDbPolyFaceMeshVertex
 10
931.6319274902343
 20
419.3069458007812
 30
95.99999999999999
 70
   192
  0
VERTEX
  5
30E
330
2F7
100
AcDbEntity
  8
3D-GLAZ
100
AcDbVertex
100
AcDbPolyFaceMeshVertex
 10
929.6265563964843
 20
418.4141235351562
 30
95.99999999999999
 70
   192
  0
VERTEX
  5
30F
330
2F7
100
AcDbEntity
  8
3D-GLAZ
100
AcDbVertex
100
AcDbPolyFaceMeshVertex
 10
927.4794616699218
 20
417.9577331542968
 30
95.99999999999999
 70
   192
  0
VERTEX
  5
310
330
2F7
100
AcDbEntity
  8
3D-GLAZ
100
AcDbVertex
100
AcDbPolyFaceMeshVertex
 10
925.2843933105468
 20
417.9577331542968
 30
95.99999999999999
 70
   192
  0
VERTEX
  5
311
330
2F7
100
AcDbEntity
  8
3D-GLAZ
100
AcDbVertex
100
AcDbPolyFaceMeshVertex
 10
923.1372070312499
 20
418.4141235351562
 30
95.99999999999999
 70
   192
  0
VERTEX
  5
312
330
2F7
100
AcDbEntity
  8
3D-GLAZ
100
AcDbVertex
100
AcDbPolyFaceMeshVertex
 10
921.1319274902343
 20
419.3069458007812
 30
95.99999999999999
 70
   192
  0
VERTEX
  5
313
330
2F7
100
AcDbEntity
  8
3D-GLAZ
100
AcDbVertex
100
AcDbPolyFaceMeshVertex
 10
919.3560791015624
 20
420.5971984863281
 30
95.99999999999999
 70
   192
  0
VERTEX
  5
314
330
2F7
100
AcDbEntity
  8
3D-GLAZ
100
AcDbVertex
100
AcDbPolyFaceMeshVertex
 10
917.8872070312499
 20
422.2284393310546
 30
95.99999999999999
 70
   192
  0
VERTEX
  5
315
330
2F7
100
AcDbEntity
  8
3D-GLAZ
100
AcDbVertex
100
AcDbPolyFaceMeshVertex
 10
916.7896728515624
 20
424.1294860839843
 30
95.99999999999999
 70
   192
  0
VERTEX
  5
316
330
2F7
100
AcDbEntity
  8
3D-GLAZ
100
AcDbVertex
100
AcDbPolyFaceMeshVertex
 10
916.111358642578
 20
426.2171173095703
 30
95.99999999999999
 70
   192
  0
VERTEX
  5
317
330
2F7
100
AcDbEntity
  8
3D-GLAZ
100
AcDbVertex
100
AcDbPolyFaceMeshVertex
 10
915.8819274902343
 20
428.4001922607421
 30
95.99999999999999
 70
   192
  0
VERTEX
  5
318
330
2F7
100
AcDbEntity
  8
3D-GLAZ
100
AcDbFaceRecord
 10
0.0
 20
0.0
 30
0.0
 70
   128
 71
    18
 72
   -19
 73
    14
 74
   -15
  0
VERTEX
  5
319
330
2F7
100
AcDbEntity
  8
3D-GLAZ
100
AcDbFaceRecord
 10
0.0
 20
0.0
 30
0.0
 70
   128
 71
    17
 72
   -18
 73
    15
 74
    16
  0
VERTEX
  5
31A
330
2F7
100
AcDbEntity
  8
3D-GLAZ
100
AcDbFaceRecord
 10
0.0
 20
0.0
 30
0.0
 70
   128
 71
    19
 72
   -20
 73
    13
 74
   -14
  0
VERTEX
  5
31B
330
2F7
100
AcDbEntity
  8
3D-GLAZ
100
AcDbFaceRecord
 10
0.0
 20
0.0
 30
0.0
 70
   128
 71
    22
 72
   -23
 73
    10
 74
   -11
  0
VERTEX
  5
31C
330
2F7
100
AcDbEntity
  8
3D-GLAZ
100
AcDbFaceRecord
 10
0.0
 20
0.0
 30
0.0
 70
   128
 71
    21
 72
   -22
 73
    11
 74
   -12
  0
VERTEX
  5
31D
330
2F7
100
AcDbEntity
  8
3D-GLAZ
100
AcDbFaceRecord
 10
0.0
 20
0.0
 30
0.0
 70
   128
 71
    20
 72
   -21
 73
    12
 74
   -13
  0
VERTEX
  5
31E
330
2F7
100
AcDbEntity
  8
3D-GLAZ
100
AcDbFaceRecord
 10
0.0
 20
0.0
 30
0.0
 70
   128
 71
    23
 72
   -24
 73
     9
 74
   -10
  0
VERTEX
  5
31F
330
2F7
100
AcDbEntity
  8
3D-GLAZ
100
AcDbFaceRecord
 10
0.0
 20
0.0
 30
0.0
 70
   128
 71
     8
 72
    -9
 73
    24
 74
   -25
  0
VERTEX
  5
320
330
2F7
100
AcDbEntity
  8
3D-GLAZ
100
AcDbFaceRecord
 10
0.0
 20
0.0
 30
0.0
 70
   128
 71
    26
 72
   -27
 73
     6
 74
    -7
  0
VERTEX
  5
321
330
2F7
100
AcDbEntity
  8
3D-GLAZ
100
AcDbFaceRecord
 10
0.0
 20
0.0
 30
0.0
 70
   128
 71
    25
 72
   -26
 73
     7
 74
    -8
  0
VERTEX
  5
322
330
2F7
100
AcDbEntity
  8
3D-GLAZ
100
AcDbFaceRecord
 10
0.0
 20
0.0
 30
0.0
 70
   128
 71
    27
 72
   -28
 73
     5
 74
    -6
  0
VERTEX
  5
323
330
2F7
100
AcDbEntity
  8
3D-GLAZ
100
AcDbFaceRecord
 10
0.0
 20
0.0
 30
0.0
 70
   128
 71
    30
 72
   -31
 73
     2
 74
    -3
  0
VERTEX
  5
324
330
2F7
100
AcDbEntity
  8
3D-GLAZ
100
AcDbFaceRecord
 10
0.0
 20
0.0
 30
0.0
 70
   128
 71
    29
 72
   -30
 73
     3
 74
    -4
  0
VERTEX
  5
325
330
2F7
100
AcDbEntity
  8
3D-GLAZ
100
AcDbFaceRecord
 10
0.0
 20
0.0
 30
0.0
 70
   128
 71
    28
 72
   -29
 73
     4
 74
    -5
  0
VERTEX
  5
326
330
2F7
100
AcDbEntity
  8
3D-GLAZ
100
AcDbFaceRecord
 10
0.0
 20
0.0
 30
0.0
 70
   128
 71
    31
 72
    32
 73
     1
 74
    -2
  0
SEQEND
  5
327
330
2F7
100
AcDbEntity
  8
3D-GLAZ
  0
POLYLINE
  5
328
330
75
100
AcDbEntity
  8
3D-GLAZ
100
AcDbPolyFaceMesh
 66
     1
 10
0.0
 20
0.0
 30
0.0
 70
    64
 71
    32
 72
    15
1001
REVIT
1002
{
1070
     1
1000
8352
1002
}
1002
{
1070
     4
1000
10191
1002
}
1002
{
1070
     2
1000
-2000014
1002
}
  0
VERTEX
  5
329
330
328
100
AcDbEntity
  8
3D-GLAZ
100
AcDbVertex
100
AcDbPolyFaceMeshVertex
 10
936.8819274902343
 20
428.4001922607421
 30
69.4295024871826
 70
   192
  0
VERTEX
  5
32A
330
328
100
AcDbEntity
  8
3D-GLAZ
100
AcDbVertex
100
AcDbPolyFaceMeshVertex
 10
936.6524963378905
 20
430.583267211914
 30
69.48567008972167
 70
   192
  0
VERTEX
  5
32B
330
328
100
AcDbEntity
  8
3D-GLAZ
100
AcDbVertex
100
AcDbPolyFaceMeshVertex
 10
935.9740905761718
 20
432.6709442138671
 30
69.65172958374022
 70
   192
  0
VERTEX
  5
32C
330
328
100
AcDbEntity
  8
3D-GLAZ
100
AcDbVertex
100
AcDbPolyFaceMeshVertex
 10
934.8765563964843
 20
434.5719451904296
 30
69.92041969299315
 70
   192
  0
VERTEX
  5
32D
330
328
100
AcDbEntity
  8
3D-GLAZ
100
AcDbVertex
100
AcDbPolyFaceMeshVertex
 10
933.4077758789061
 20
436.2032318115234
 30
70.27999877929686
 70
   192
  0
VERTEX
  5
32E
330
328
100
AcDbEntity
  8
3D-GLAZ
100
AcDbVertex
100
AcDbPolyFaceMeshVertex
 10
931.6319274902343
 20
437.4934844970703
 30
70.71474838256835
 70
   192
  0
VERTEX
  5
32F
330
328
100
AcDbEntity
  8
3D-GLAZ
100
AcDbVertex
100
AcDbPolyFaceMeshVertex
 10
929.6265563964843
 20
438.3863067626953
 30
71.20567131042479
 70
   192
  0
VERTEX
  5
330
330
328
100
AcDbEntity
  8
3D-GLAZ
100
AcDbVertex
100
AcDbPolyFaceMeshVertex
 10
927.4794616699218
 20
438.8426971435546
 30
71.73130989074706
 70
   192
  0
VERTEX
  5
331
330
328
100
AcDbEntity
  8
3D-GLAZ
100
AcDbVertex
100
AcDbPolyFaceMeshVertex
 10
925.2843933105468
 20
438.8426971435546
 30
72.26869010925292
 70
   192
  0
VERTEX
  5
332
330
328
100
AcDbEntity
  8
3D-GLAZ
100
AcDbVertex
100
AcDbPolyFaceMeshVertex
 10
923.1372070312499
 20
438.3863067626953
 30
72.79432868957518
 70
   192
  0
VERTEX
  5
333
330
328
100
AcDbEntity
  8
3D-GLAZ
100
AcDbVertex
100
AcDbPolyFaceMeshVertex
 10
921.1319274902343
 20
437.4934844970703
 30
73.28525161743163
 70
   192
  0
VERTEX
  5
334
330
328
100
AcDbEntity
  8
3D-GLAZ
100
AcDbVertex
100
AcDbPolyFaceMeshVertex
 10
919.3560791015624
 20
436.2032318115234
 30
73.72000122070311
 70
   192
  0
VERTEX
  5
335
330
328
100
AcDbEntity
  8
3D-GLAZ
100
AcDbVertex
100
AcDbPolyFaceMeshVertex
 10
917.8872070312499
 20
434.5719451904296
 30
74.07958030700682
 70
   192
  0
VERTEX
  5
336
330
328
100
AcDbEntity
  8
3D-GLAZ
100
AcDbVertex
100
AcDbPolyFaceMeshVertex
 10
916.7896728515624
 20
432.6709442138671
 30
74.34827041625975
 70
   192
  0
VERTEX
  5
337
330
328
100
AcDbEntity
  8
3D-GLAZ
100
AcDbVertex
100
AcDbPolyFaceMeshVertex
 10
916.111358642578
 20
430.583267211914
 30
74.5143299102783
 70
   192
  0
VERTEX
  5
338
330
328
100
AcDbEntity
  8
3D-GLAZ
100
AcDbVertex
100
AcDbPolyFaceMeshVertex
 10
915.8819274902343
 20
428.4001922607421
 30
74.57049751281737
 70
   192
  0
VERTEX
  5
339
330
328
100
AcDbEntity
  8
3D-GLAZ
100
AcDbVertex
100
AcDbPolyFaceMeshVertex
 10
915.8819274902343
 20
428.4001922607421
 30
95.99999999999999
 70
   192
  0
VERTEX
  5
33A
330
328
100
AcDbEntity
  8
3D-GLAZ
100
AcDbVertex
100
AcDbPolyFaceMeshVertex
 10
916.111358642578
 20
430.583267211914
 30
95.99999999999999
 70
   192
  0
VERTEX
  5
33B
330
328
100
AcDbEntity
  8
3D-GLAZ
100
AcDbVertex
100
AcDbPolyFaceMeshVertex
 10
916.7896728515624
 20
432.6709442138671
 30
95.99999999999999
 70
   192
  0
VERTEX
  5
33C
330
328
100
AcDbEntity
  8
3D-GLAZ
100
AcDbVertex
100
AcDbPolyFaceMeshVertex
 10
917.8872070312499
 20
434.5719451904296
 30
95.99999999999999
 70
   192
  0
VERTEX
  5
33D
330
328
100
AcDbEntity
  8
3D-GLAZ
100
AcDbVertex
100
AcDbPolyFaceMeshVertex
 10
919.3560791015624
 20
436.2032318115234
 30
95.99999999999999
 70
   192
  0
VERTEX
  5
33E
330
328
100
AcDbEntity
  8
3D-GLAZ
100
AcDbVertex
100
AcDbPolyFaceMeshVertex
 10
921.1319274902343
 20
437.4934844970703
 30
95.99999999999999
 70
   192
  0
VERTEX
  5
33F
330
328
100
AcDbEntity
  8
3D-GLAZ
100
AcDbVertex
100
AcDbPolyFaceMeshVertex
 10
923.1372070312499
 20
438.3863067626953
 30
95.99999999999999
 70
   192
  0
VERTEX
  5
340
330
328
100
AcDbEntity
  8
3D-GLAZ
100
AcDbVertex
100
AcDbPolyFaceMeshVertex
 10
925.2843933105468
 20
438.8426971435546
 30
95.99999999999999
 70
   192
  0
VERTEX
  5
341
330
328
100
AcDbEntity
  8
3D-GLAZ
100
AcDbVertex
100
AcDbPolyFaceMeshVertex
 10
927.4794616699218
 20
438.8426971435546
 30
95.99999999999999
 70
   192
  0
VERTEX
  5
342
330
328
100
AcDbEntity
  8
3D-GLAZ
100
AcDbVertex
100
AcDbPolyFaceMeshVertex
 10
929.6265563964843
 20
438.3863067626953
 30
95.99999999999999
 70
   192
  0
VERTEX
  5
343
330
328
100
AcDbEntity
  8
3D-GLAZ
100
AcDbVertex
100
AcDbPolyFaceMeshVertex
 10
931.6319274902343
 20
437.4934844970703
 30
95.99999999999999
 70
   192
  0
VERTEX
  5
344
330
328
100
AcDbEntity
  8
3D-GLAZ
100
AcDbVertex
100
AcDbPolyFaceMeshVertex
 10
933.4077758789061
 20
436.2032318115234
 30
95.99999999999999
 70
   192
  0
VERTEX
  5
345
330
328
100
AcDbEntity
  8
3D-GLAZ
100
AcDbVertex
100
AcDbPolyFaceMeshVertex
 10
934.8765563964843
 20
434.5719451904296
 30
95.99999999999999
 70
   192
  0
VERTEX
  5
346
330
328
100
AcDbEntity
  8
3D-GLAZ
100
AcDbVertex
100
AcDbPolyFaceMeshVertex
 10
935.9740905761718
 20
432.6709442138671
 30
95.99999999999999
 70
   192
  0
VERTEX
  5
347
330
328
100
AcDbEntity
  8
3D-GLAZ
100
AcDbVertex
100
AcDbPolyFaceMeshVertex
 10
936.6524963378905
 20
430.583267211914
 30
95.99999999999999
 70
   192
  0
VERTEX
  5
348
330
328
100
AcDbEntity
  8
3D-GLAZ
100
AcDbVertex
100
AcDbPolyFaceMeshVertex
 10
936.8819274902343
 20
428.4001922607421
 30
95.99999999999999
 70
   192
  0
VERTEX
  5
349
330
328
100
AcDbEntity
  8
3D-GLAZ
100
AcDbFaceRecord
 10
0.0
 20
0.0
 30
0.0
 70
   128
 71
   -15
 72
    18
 73
   -19
 74
    14
  0
VERTEX
  5
34A
330
328
100
AcDbEntity
  8
3D-GLAZ
100
AcDbFaceRecord
 10
0.0
 20
0.0
 30
0.0
 70
   128
 71
    16
 72
    17
 73
   -18
 74
    15
  0
VERTEX
  5
34B
330
328
100
AcDbEntity
  8
3D-GLAZ
100
AcDbFaceRecord
 10
0.0
 20
0.0
 30
0.0
 70
   128
 71
   -14
 72
    19
 73
   -20
 74
    13
  0
VERTEX
  5
34C
330
328
100
AcDbEntity
  8
3D-GLAZ
100
AcDbFaceRecord
 10
0.0
 20
0.0
 30
0.0
 70
   128
 71
   -11
 72
    22
 73
   -23
 74
    10
  0
VERTEX
  5
34D
330
328
100
AcDbEntity
  8
3D-GLAZ
100
AcDbFaceRecord
 10
0.0
 20
0.0
 30
0.0
 70
   128
 71
   -12
 72
    21
 73
   -22
 74
    11
  0
VERTEX
  5
34E
330
328
100
AcDbEntity
  8
3D-GLAZ
100
AcDbFaceRecord
 10
0.0
 20
0.0
 30
0.0
 70
   128
 71
   -13
 72
    20
 73
   -21
 74
    12
  0
VERTEX
  5
34F
330
328
100
AcDbEntity
  8
3D-GLAZ
100
AcDbFaceRecord
 10
0.0
 20
0.0
 30
0.0
 70
   128
 71
   -10
 72
    23
 73
   -24
 74
     9
  0
VERTEX
  5
350
330
328
100
AcDbEntity
  8
3D-GLAZ
100
AcDbFaceRecord
 10
0.0
 20
0.0
 30
0.0
 70
   128
 71
    -9
 72
    24
 73
   -25
 74
     8
  0
VERTEX
  5
351
330
328
100
AcDbEntity
  8
3D-GLAZ
100
AcDbFaceRecord
 10
0.0
 20
0.0
 30
0.0
 70
   128
 71
    -7
 72
    26
 73
   -27
 74
     6
  0
VERTEX
  5
352
330
328
100
AcDbEntity
  8
3D-GLAZ
100
AcDbFaceRecord
 10
0.0
 20
0.0
 30
0.0
 70
   128
 71
    -8
 72
    25
 73
   -26
 74
     7
  0
VERTEX
  5
353
330
328
100
AcDbEntity
  8
3D-GLAZ
100
AcDbFaceRecord
 10
0.0
 20
0.0
 30
0.0
 70
   128
 71
    -6
 72
    27
 73
   -28
 74
     5
  0
VERTEX
  5
354
330
328
100
AcDbEntity
  8
3D-GLAZ
100
AcDbFaceRecord
 10
0.0
 20
0.0
 30
0.0
 70
   128
 71
    -3
 72
    30
 73
   -31
 74
     2
  0
VERTEX
  5
355
330
328
100
AcDbEntity
  8
3D-GLAZ
100
AcDbFaceRecord
 10
0.0
 20
0.0
 30
0.0
 70
   128
 71
    -4
 72
    29
 73
   -30
 74
     3
  0
VERTEX
  5
356
330
328
100
AcDbEntity
  8
3D-GLAZ
100
AcDbFaceRecord
 10
0.0
 20
0.0
 30
0.0
 70
   128
 71
    -5
 72
    28
 73
   -29
 74
     4
  0
VERTEX
  5
357
330
328
100
AcDbEntity
  8
3D-GLAZ
100
AcDbFaceRecord
 10
0.0
 20
0.0
 30
0.0
 70
   128
 71
    -2
 72
    31
 73
    32
 74
     1
  0
SEQEND
  5
358
330
328
100
AcDbEntity
  8
3D-GLAZ
  0
POLYLINE
  5
359
330
75
100
AcDbEntity
  8
3D-GLAZ
100
AcDbPolyFaceMesh
 66
     1
 10
0.0
 20
0.0
 30
0.0
 70
    64
 71
    32
 72
    15
1001
REVIT
1002
{
1070
     1
1000
8352
1002
}
1002
{
1070
     4
1000
10191
1002
}
1002
{
1070
     2
1000
-2000014
1002
}
  0
VERTEX
  5
35A
330
359
100
AcDbEntity
  8
3D-GLAZ
100
AcDbVertex
100
AcDbPolyFaceMeshVertex
 10
936.756866455078
 20
428.4001922607421
 30
95.99999999999999
 70
   192
  0
VERTEX
  5
35B
330
359
100
AcDbEntity
  8
3D-GLAZ
100
AcDbVertex
100
AcDbPolyFaceMeshVertex
 10
936.5301818847655
 20
426.2431182861328
 30
95.99999999999999
 70
   192
  0
VERTEX
  5
35C
330
359
100
AcDbEntity
  8
3D-GLAZ
100
AcDbVertex
100
AcDbPolyFaceMeshVertex
 10
935.8599243164061
 20
424.1802978515624
 30
95.99999999999999
 70
   192
  0
VERTEX
  5
35D
330
359
100
AcDbEntity
  8
3D-GLAZ
100
AcDbVertex
100
AcDbPolyFaceMeshVertex
 10
934.7754821777343
 20
422.3019104003906
 30
95.99999999999999
 70
   192
  0
VERTEX
  5
35E
330
359
100
AcDbEntity
  8
3D-GLAZ
100
AcDbVertex
100
AcDbPolyFaceMeshVertex
 10
933.3240966796874
 20
420.6900787353515
 30
95.99999999999999
 70
   192
  0
VERTEX
  5
35F
330
359
100
AcDbEntity
  8
3D-GLAZ
100
AcDbVertex
100
AcDbPolyFaceMeshVertex
 10
931.5693969726561
 20
419.4152069091796
 30
95.99999999999999
 70
   192
  0
VERTEX
  5
360
330
359
100
AcDbEntity
  8
3D-GLAZ
100
AcDbVertex
100
AcDbPolyFaceMeshVertex
 10
929.587921142578
 20
418.5330047607421
 30
95.99999999999999
 70
   192
  0
VERTEX
  5
361
330
359
100
AcDbEntity
  8
3D-GLAZ
100
AcDbVertex
100
AcDbPolyFaceMeshVertex
 10
927.4663696289061
 20
418.0820159912109
 30
95.99999999999999
 70
   192
  0
VERTEX
  5
362
330
359
100
AcDbEntity
  8
3D-GLAZ
100
AcDbVertex
100
AcDbPolyFaceMeshVertex
 10
925.297393798828
 20
418.0820159912109
 30
95.99999999999999
 70
   192
  0
VERTEX
  5
363
330
359
100
AcDbEntity
  8
3D-GLAZ
100
AcDbVertex
100
AcDbPolyFaceMeshVertex
 10
923.1758422851561
 20
418.5330047607421
 30
95.99999999999999
 70
   192
  0
VERTEX
  5
364
330
359
100
AcDbEntity
  8
3D-GLAZ
100
AcDbVertex
100
AcDbPolyFaceMeshVertex
 10
921.194366455078
 20
419.4152069091796
 30
95.99999999999999
 70
   192
  0
VERTEX
  5
365
330
359
100
AcDbEntity
  8
3D-GLAZ
100
AcDbVertex
100
AcDbPolyFaceMeshVertex
 10
919.4396667480468
 20
420.6900787353515
 30
95.99999999999999
 70
   192
  0
VERTEX
  5
366
330
359
100
AcDbEntity
  8
3D-GLAZ
100
AcDbVertex
100
AcDbPolyFaceMeshVertex
 10
917.9883728027343
 20
422.3019104003906
 30
95.99999999999999
 70
   192
  0
VERTEX
  5
367
330
359
100
AcDbEntity
  8
3D-GLAZ
100
AcDbVertex
100
AcDbPolyFaceMeshVertex
 10
916.903839111328
 20
424.1802978515624
 30
95.99999999999999
 70
   192
  0
VERTEX
  5
368
330
359
100
AcDbEntity
  8
3D-GLAZ
100
AcDbVertex
100
AcDbPolyFaceMeshVertex
 10
916.233673095703
 20
426.2431182861328
 30
95.99999999999999
 70
   192
  0
VERTEX
  5
369
330
359
100
AcDbEntity
  8
3D-GLAZ
100
AcDbVertex
100
AcDbPolyFaceMeshVertex
 10
916.0068969726561
 20
428.4001922607421
 30
95.99999999999999
 70
   192
  0
VERTEX
  5
36A
330
359
100
AcDbEntity
  8
3D-GLAZ
100
AcDbVertex
100
AcDbPolyFaceMeshVertex
 10
916.0068969726561
 20
428.4001922607421
 30
74.53989601135252
 70
   192
  0
VERTEX
  5
36B
330
359
100
AcDbEntity
  8
3D-GLAZ
100
AcDbVertex
100
AcDbPolyFaceMeshVertex
 10
916.233673095703
 20
426.2431182861328
 30
74.48439788818358
 70
   192
  0
VERTEX
  5
36C
330
359
100
AcDbEntity
  8
3D-GLAZ
100
AcDbVertex
100
AcDbPolyFaceMeshVertex
 10
916.903839111328
 20
424.1802978515624
 30
74.32031249999999
 70
   192
  0
VERTEX
  5
36D
330
359
100
AcDbEntity
  8
3D-GLAZ
100
AcDbVertex
100
AcDbPolyFaceMeshVertex
 10
917.9883728027343
 20
422.3019104003906
 30
74.05482101440428
 70
   192
  0
VERTEX
  5
36E
330
359
100
AcDbEntity
  8
3D-GLAZ
100
AcDbVertex
100
AcDbPolyFaceMeshVertex
 10
919.4396667480468
 20
420.6900787353515
 30
73.6995220184326
 70
   192
  0
VERTEX
  5
36F
330
359
100
AcDbEntity
  8
3D-GLAZ
100
AcDbVertex
100
AcDbPolyFaceMeshVertex
 10
921.194366455078
 20
419.4152069091796
 30
73.2699508666992
 70
   192
  0
VERTEX
  5
370
330
359
100
AcDbEntity
  8
3D-GLAZ
100
AcDbVertex
100
AcDbPolyFaceMeshVertex
 10
923.1758422851561
 20
418.5330047607421
 30
72.78487014770506
 70
   192
  0
VERTEX
  5
371
330
359
100
AcDbEntity
  8
3D-GLAZ
100
AcDbVertex
100
AcDbPolyFaceMeshVertex
 10
925.297393798828
 20
418.0820159912109
 30
72.26549148559569
 70
   192
  0
VERTEX
  5
372
330
359
100
AcDbEntity
  8
3D-GLAZ
100
AcDbVertex
100
AcDbPolyFaceMeshVertex
 10
927.4663696289061
 20
418.0820159912109
 30
71.73450851440428
 70
   192
  0
VERTEX
  5
373
330
359
100
AcDbEntity
  8
3D-GLAZ
100
AcDbVertex
100
AcDbPolyFaceMeshVertex
 10
929.587921142578
 20
418.5330047607421
 30
71.21512985229491
 70
   192
  0
VERTEX
  5
374
330
359
100
AcDbEntity
  8
3D-GLAZ
100
AcDbVertex
100
AcDbPolyFaceMeshVertex
 10
931.5693969726561
 20
419.4152069091796
 30
70.73004913330077
 70
   192
  0
VERTEX
  5
375
330
359
100
AcDbEntity
  8
3D-GLAZ
100
AcDbVertex
100
AcDbPolyFaceMeshVertex
 10
933.3240966796874
 20
420.6900787353515
 30
70.30047798156737
 70
   192
  0
VERTEX
  5
376
330
359
100
AcDbEntity
  8
3D-GLAZ
100
AcDbVertex
100
AcDbPolyFaceMeshVertex
 10
934.7754821777343
 20
422.3019104003906
 30
69.94517898559569
 70
   192
  0
VERTEX
  5
377
330
359
100
AcDbEntity
  8
3D-GLAZ
100
AcDbVertex
100
AcDbPolyFaceMeshVertex
 10
935.8599243164061
 20
424.1802978515624
 30
69.67968749999999
 70
   192
  0
VERTEX
  5
378
330
359
100
AcDbEntity
  8
3D-GLAZ
100
AcDbVertex
100
AcDbPolyFaceMeshVertex
 10
936.5301818847655
 20
426.2431182861328
 30
69.51560211181639
 70
   192
  0
VERTEX
  5
379
330
359
100
AcDbEntity
  8
3D-GLAZ
100
AcDbVertex
100
AcDbPolyFaceMeshVertex
 10
936.756866455078
 20
428.4001922607421
 30
69.46010398864745
 70
   192
  0
VERTEX
  5
37A
330
359
100
AcDbEntity
  8
3D-GLAZ
100
AcDbFaceRecord
 10
0.0
 20
0.0
 30
0.0
 70
   128
 71
   -13
 72
    20
 73
   -19
 74
    14
  0
VERTEX
  5
37B
330
359
100
AcDbEntity
  8
3D-GLAZ
100
AcDbFaceRecord
 10
0.0
 20
0.0
 30
0.0
 70
   128
 71
   -15
 72
    18
 73
    17
 74
    16
  0
VERTEX
  5
37C
330
359
100
AcDbEntity
  8
3D-GLAZ
100
AcDbFaceRecord
 10
0.0
 20
0.0
 30
0.0
 70
   128
 71
   -14
 72
    19
 73
   -18
 74
    15
  0
VERTEX
  5
37D
330
359
100
AcDbEntity
  8
3D-GLAZ
100
AcDbFaceRecord
 10
0.0
 20
0.0
 30
0.0
 70
   128
 71
    -9
 72
    24
 73
   -23
 74
    10
  0
VERTEX
  5
37E
330
359
100
AcDbEntity
  8
3D-GLAZ
100
AcDbFaceRecord
 10
0.0
 20
0.0
 30
0.0
 70
   128
 71
   -11
 72
    22
 73
   -21
 74
    12
  0
VERTEX
  5
37F
330
359
100
AcDbEntity
  8
3D-GLAZ
100
AcDbFaceRecord
 10
0.0
 20
0.0
 30
0.0
 70
   128
 71
   -10
 72
    23
 73
   -22
 74
    11
  0
VERTEX
  5
380
330
359
100
AcDbEntity
  8
3D-GLAZ
100
AcDbFaceRecord
 10
0.0
 20
0.0
 30
0.0
 70
   128
 71
   -12
 72
    21
 73
   -20
 74
    13
  0
VERTEX
  5
381
330
359
100
AcDbEntity
  8
3D-GLAZ
100
AcDbFaceRecord
 10
0.0
 20
0.0
 30
0.0
 70
   128
 71
   -24
 72
     9
 73
    -8
 74
    25
  0
VERTEX
  5
382
330
359
100
AcDbEntity
  8
3D-GLAZ
100
AcDbFaceRecord
 10
0.0
 20
0.0
 30
0.0
 70
   128
 71
    -6
 72
    27
 73
   -26
 74
     7
  0
VERTEX
  5
383
330
359
100
AcDbEntity
  8
3D-GLAZ
100
AcDbFaceRecord
 10
0.0
 20
0.0
 30
0.0
 70
   128
 71
    -7
 72
    26
 73
   -25
 74
     8
  0
VERTEX
  5
384
330
359
100
AcDbEntity
  8
3D-GLAZ
100
AcDbFaceRecord
 10
0.0
 20
0.0
 30
0.0
 70
   128
 71
    -5
 72
    28
 73
   -27
 74
     6
  0
VERTEX
  5
385
330
359
100
AcDbEntity
  8
3D-GLAZ
100
AcDbFaceRecord
 10
0.0
 20
0.0
 30
0.0
 70
   128
 71
    -2
 72
    31
 73
   -30
 74
     3
  0
VERTEX
  5
386
330
359
100
AcDbEntity
  8
3D-GLAZ
100
AcDbFaceRecord
 10
0.0
 20
0.0
 30
0.0
 70
   128
 71
    -3
 72
    30
 73
   -29
 74
     4
  0
VERTEX
  5
387
330
359
100
AcDbEntity
  8
3D-GLAZ
100
AcDbFaceRecord
 10
0.0
 20
0.0
 30
0.0
 70
   128
 71
    -4
 72
    29
 73
   -28
 74
     5
  0
VERTEX
  5
388
330
359
100
AcDbEntity
  8
3D-GLAZ
100
AcDbFaceRecord
 10
0.0
 20
0.0
 30
0.0
 70
   128
 71
     1
 72
    32
 73
   -31
 74
     2
  0
SEQEND
  5
389
330
359
100
AcDbEntity
  8
3D-GLAZ
  0
POLYLINE
  5
38A
330
75
100
AcDbEntity
  8
3D-GLAZ
100
AcDbPolyFaceMesh
 66
     1
 10
0.0
 20
0.0
 30
0.0
 70
    64
 71
    32
 72
    15
1001
REVIT
1002
{
1070
     1
1000
8352
1002
}
1002
{
1070
     4
1000
10191
1002
}
1002
{
1070
     2
1000
-2000014
1002
}
  0
VERTEX
  5
38B
330
38A
100
AcDbEntity
  8
3D-GLAZ
100
AcDbVertex
100
AcDbPolyFaceMeshVertex
 10
916.0068969726561
 20
428.4001922607421
 30
95.99999999999999
 70
   192
  0
VERTEX
  5
38C
330
38A
100
AcDbEntity
  8
3D-GLAZ
100
AcDbVertex
100
AcDbPolyFaceMeshVertex
 10
916.233673095703
 20
430.5572662353515
 30
95.99999999999999
 70
   192
  0
VERTEX
  5
38D
330
38A
100
AcDbEntity
  8
3D-GLAZ
100
AcDbVertex
100
AcDbPolyFaceMeshVertex
 10
916.903839111328
 20
432.6200866699218
 30
95.99999999999999
 70
   192
  0
VERTEX
  5
38E
330
38A
100
AcDbEntity
  8
3D-GLAZ
100
AcDbVertex
100
AcDbPolyFaceMeshVertex
 10
917.9883728027343
 20
434.4984741210937
 30
95.99999999999999
 70
   192
  0
VERTEX
  5
38F
330
38A
100
AcDbEntity
  8
3D-GLAZ
100
AcDbVertex
100
AcDbPolyFaceMeshVertex
 10
919.4396667480468
 20
436.1103515624999
 30
95.99999999999999
 70
   192
  0
VERTEX
  5
390
330
38A
100
AcDbEntity
  8
3D-GLAZ
100
AcDbVertex
100
AcDbPolyFaceMeshVertex
 10
921.194366455078
 20
437.3852233886718
 30
95.99999999999999
 70
   192
  0
VERTEX
  5
391
330
38A
100
AcDbEntity
  8
3D-GLAZ
100
AcDbVertex
100
AcDbPolyFaceMeshVertex
 10
923.1758422851561
 20
438.2674255371093
 30
95.99999999999999
 70
   192
  0
VERTEX
  5
392
330
38A
100
AcDbEntity
  8
3D-GLAZ
100
AcDbVertex
100
AcDbPolyFaceMeshVertex
 10
925.297393798828
 20
438.7183685302734
 30
95.99999999999999
 70
   192
  0
VERTEX
  5
393
330
38A
100
AcDbEntity
  8
3D-GLAZ
100
AcDbVertex
100
AcDbPolyFaceMeshVertex
 10
927.4663696289061
 20
438.7183685302734
 30
95.99999999999999
 70
   192
  0
VERTEX
  5
394
330
38A
100
AcDbEntity
  8
3D-GLAZ
100
AcDbVertex
100
AcDbPolyFaceMeshVertex
 10
929.587921142578
 20
438.2674255371093
 30
95.99999999999999
 70
   192
  0
VERTEX
  5
395
330
38A
100
AcDbEntity
  8
3D-GLAZ
100
AcDbVertex
100
AcDbPolyFaceMeshVertex
 10
931.5693969726561
 20
437.3852233886718
 30
95.99999999999999
 70
   192
  0
VERTEX
  5
396
330
38A
100
AcDbEntity
  8
3D-GLAZ
100
AcDbVertex
100
AcDbPolyFaceMeshVertex
 10
933.3240966796874
 20
436.1103515624999
 30
95.99999999999999
 70
   192
  0
VERTEX
  5
397
330
38A
100
AcDbEntity
  8
3D-GLAZ
100
AcDbVertex
100
AcDbPolyFaceMeshVertex
 10
934.7754821777343
 20
434.4984741210937
 30
95.99999999999999
 70
   192
  0
VERTEX
  5
398
330
38A
100
AcDbEntity
  8
3D-GLAZ
100
AcDbVertex
100
AcDbPolyFaceMeshVertex
 10
935.8599243164061
 20
432.6200866699218
 30
95.99999999999999
 70
   192
  0
VERTEX
  5
399
330
38A
100
AcDbEntity
  8
3D-GLAZ
100
AcDbVertex
100
AcDbPolyFaceMeshVertex
 10
936.5301818847655
 20
430.5572662353515
 30
95.99999999999999
 70
   192
  0
VERTEX
  5
39A
330
38A
100
AcDbEntity
  8
3D-GLAZ
100
AcDbVertex
100
AcDbPolyFaceMeshVertex
 10
936.756866455078
 20
428.4001922607421
 30
95.99999999999999
 70
   192
  0
VERTEX
  5
39B
330
38A
100
AcDbEntity
  8
3D-GLAZ
100
AcDbVertex
100
AcDbPolyFaceMeshVertex
 10
936.756866455078
 20
428.4001922607421
 30
69.46010398864745
 70
   192
  0
VERTEX
  5
39C
330
38A
100
AcDbEntity
  8
3D-GLAZ
100
AcDbVertex
100
AcDbPolyFaceMeshVertex
 10
936.5301818847655
 20
430.5572662353515
 30
69.51560211181639
 70
   192
  0
VERTEX
  5
39D
330
38A
100
AcDbEntity
  8
3D-GLAZ
100
AcDbVertex
100
AcDbPolyFaceMeshVertex
 10
935.8599243164061
 20
432.6200866699218
 30
69.67968749999999
 70
   192
  0
VERTEX
  5
39E
330
38A
100
AcDbEntity
  8
3D-GLAZ
100
AcDbVertex
100
AcDbPolyFaceMeshVertex
 10
934.7754821777343
 20
434.4984741210937
 30
69.94517898559569
 70
   192
  0
VERTEX
  5
39F
330
38A
100
AcDbEntity
  8
3D-GLAZ
100
AcDbVertex
100
AcDbPolyFaceMeshVertex
 10
933.3240966796874
 20
436.1103515624999
 30
70.30047798156737
 70
   192
  0
VERTEX
  5
3A0
330
38A
100
AcDbEntity
  8
3D-GLAZ
100
AcDbVertex
100
AcDbPolyFaceMeshVertex
 10
931.5693969726561
 20
437.3852233886718
 30
70.73004913330077
 70
   192
  0
VERTEX
  5
3A1
330
38A
100
AcDbEntity
  8
3D-GLAZ
100
AcDbVertex
100
AcDbPolyFaceMeshVertex
 10
929.587921142578
 20
438.2674255371093
 30
71.21512985229491
 70
   192
  0
VERTEX
  5
3A2
330
38A
100
AcDbEntity
  8
3D-GLAZ
100
AcDbVertex
100
AcDbPolyFaceMeshVertex
 10
927.4663696289061
 20
438.7183685302734
 30
71.73450851440428
 70
   192
  0
VERTEX
  5
3A3
330
38A
100
AcDbEntity
  8
3D-GLAZ
100
AcDbVertex
100
AcDbPolyFaceMeshVertex
 10
925.297393798828
 20
438.7183685302734
 30
72.26549148559569
 70
   192
  0
VERTEX
  5
3A4
330
38A
100
AcDbEntity
  8
3D-GLAZ
100
AcDbVertex
100
AcDbPolyFaceMeshVertex
 10
923.1758422851561
 20
438.2674255371093
 30
72.78487014770506
 70
   192
  0
VERTEX
  5
3A5
330
38A
100
AcDbEntity
  8
3D-GLAZ
100
AcDbVertex
100
AcDbPolyFaceMeshVertex
 10
921.194366455078
 20
437.3852233886718
 30
73.2699508666992
 70
   192
  0
VERTEX
  5
3A6
330
38A
100
AcDbEntity
  8
3D-GLAZ
100
AcDbVertex
100
AcDbPolyFaceMeshVertex
 10
919.4396667480468
 20
436.1103515624999
 30
73.6995220184326
 70
   192
  0
VERTEX
  5
3A7
330
38A
100
AcDbEntity
  8
3D-GLAZ
100
AcDbVertex
100
AcDbPolyFaceMeshVertex
 10
917.9883728027343
 20
434.4984741210937
 30
74.05482101440428
 70
   192
  0
VERTEX
  5
3A8
330
38A
100
AcDbEntity
  8
3D-GLAZ
100
AcDbVertex
100
AcDbPolyFaceMeshVertex
 10
916.903839111328
 20
432.6200866699218
 30
74.32031249999999
 70
   192
  0
VERTEX
  5
3A9
330
38A
100
AcDbEntity
  8
3D-GLAZ
100
AcDbVertex
100
AcDbPolyFaceMeshVertex
 10
916.233673095703
 20
430.5572662353515
 30
74.48439788818358
 70
   192
  0
VERTEX
  5
3AA
330
38A
100
AcDbEntity
  8
3D-GLAZ
100
AcDbVertex
100
AcDbPolyFaceMeshVertex
 10
916.0068969726561
 20
428.4001922607421
 30
74.53989601135252
 70
   192
  0
VERTEX
  5
3AB
330
38A
100
AcDbEntity
  8
3D-GLAZ
100
AcDbFaceRecord
 10
0.0
 20
0.0
 30
0.0
 70
   128
 71
    18
 72
    17
 73
    16
 74
   -15
  0
VERTEX
  5
3AC
330
38A
100
AcDbEntity
  8
3D-GLAZ
100
AcDbFaceRecord
 10
0.0
 20
0.0
 30
0.0
 70
   128
 71
    19
 72
   -18
 73
    15
 74
   -14
  0
VERTEX
  5
3AD
330
38A
100
AcDbEntity
  8
3D-GLAZ
100
AcDbFaceRecord
 10
0.0
 20
0.0
 30
0.0
 70
   128
 71
    20
 72
   -19
 73
    14
 74
   -13
  0
VERTEX
  5
3AE
330
38A
100
AcDbEntity
  8
3D-GLAZ
100
AcDbFaceRecord
 10
0.0
 20
0.0
 30
0.0
 70
   128
 71
    22
 72
   -21
 73
    12
 74
   -11
  0
VERTEX
  5
3AF
330
38A
100
AcDbEntity
  8
3D-GLAZ
100
AcDbFaceRecord
 10
0.0
 20
0.0
 30
0.0
 70
   128
 71
    23
 72
   -22
 73
    11
 74
   -10
  0
VERTEX
  5
3B0
330
38A
100
AcDbEntity
  8
3D-GLAZ
100
AcDbFaceRecord
 10
0.0
 20
0.0
 30
0.0
 70
   128
 71
    21
 72
   -20
 73
    13
 74
   -12
  0
VERTEX
  5
3B1
330
38A
100
AcDbEntity
  8
3D-GLAZ
100
AcDbFaceRecord
 10
0.0
 20
0.0
 30
0.0
 70
   128
 71
    24
 72
   -23
 73
    10
 74
    -9
  0
VERTEX
  5
3B2
330
38A
100
AcDbEntity
  8
3D-GLAZ
100
AcDbFaceRecord
 10
0.0
 20
0.0
 30
0.0
 70
   128
 71
    25
 72
   -24
 73
     9
 74
    -8
  0
VERTEX
  5
3B3
330
38A
100
AcDbEntity
  8
3D-GLAZ
100
AcDbFaceRecord
 10
0.0
 20
0.0
 30
0.0
 70
   128
 71
    26
 72
   -25
 73
     8
 74
    -7
  0
VERTEX
  5
3B4
330
38A
100
AcDbEntity
  8
3D-GLAZ
100
AcDbFaceRecord
 10
0.0
 20
0.0
 30
0.0
 70
   128
 71
    28
 72
   -27
 73
     6
 74
    -5
  0
VERTEX
  5
3B5
330
38A
100
AcDbEntity
  8
3D-GLAZ
100
AcDbFaceRecord
 10
0.0
 20
0.0
 30
0.0
 70
   128
 71
    27
 72
   -26
 73
     7
 74
    -6
  0
VERTEX
  5
3B6
330
38A
100
AcDbEntity
  8
3D-GLAZ
100
AcDbFaceRecord
 10
0.0
 20
0.0
 30
0.0
 70
   128
 71
    30
 72
   -29
 73
     4
 74
    -3
  0
VERTEX
  5
3B7
330
38A
100
AcDbEntity
  8
3D-GLAZ
100
AcDbFaceRecord
 10
0.0
 20
0.0
 30
0.0
 70
   128
 71
    32
 72
   -31
 73
     2
 74
     1
  0
VERTEX
  5
3B8
330
38A
100
AcDbEntity
  8
3D-GLAZ
100
AcDbFaceRecord
 10
0.0
 20
0.0
 30
0.0
 70
   128
 71
    31
 72
   -30
 73
     3
 74
    -2
  0
VERTEX
  5
3B9
330
38A
100
AcDbEntity
  8
3D-GLAZ
100
AcDbFaceRecord
 10
0.0
 20
0.0
 30
0.0
 70
   128
 71
    29
 72
   -28
 73
     5
 74
    -4
  0
SEQEND
  5
3BA
330
38A
100
AcDbEntity
  8
3D-GLAZ
  0
ENDSEC
  0
SECTION
  2
OBJECTS
  0
DICTIONARY
  5
C
330
0
100
AcDbDictionary
  3
ACAD_COLOR
350
6B
  3
ACAD_GROUP
350
D
  3
ACAD_LAYOUT
350
6A
  3
ACAD_MATERIAL
350
10
  3
ACAD_MLEADERSTYLE
350
6E
  3
ACAD_MLINESTYLE
350
67
  3
ACAD_PLOTSETTINGS
350
69
  3
ACAD_SCALELIST
350
3A
  3
ACAD_VISUALSTYLE
350
29
  3
ACDB_RECOMPOSE_DATA
350
3C5
  3
ACDBHEADERROUNDTRIPXREC
350
3E4
  3
ACDBVARIABLEDICTIONARY
350
3D5
  3
REVIT_DICTIONARY
350
3C0
  0
DICTIONARY
  5
408
330
8
100
AcDbDictionary
280
     1
  3
ACAD_XREC_ROUNDTRIP
360
409
  0
DICTIONARY
  5
3D2
330
3BB
100
AcDbDictionary
280
     1
  3
ACAD_XREC_ROUNDTRIP
360
3D3
  0
DICTIONARY
  5
6B
102
{ACAD_REACTORS
330
C
102
}
330
C
100
AcDbDictionary
  0
DICTIONARY
  5
D
102
{ACAD_REACTORS
330
C
102
}
330
C
100
AcDbDictionary
  0
DICTIONARY
  5
6A
102
{ACAD_REACTORS
330
C
102
}
330
C
100
AcDbDictionary
  0
DICTIONARY
  5
10
102
{ACAD_REACTORS
330
C
102
}
330
C
100
AcDbDictionary
  3
BYBLOCK
350
19
  3
BYLAYER
350
11
  3
GLOBAL
350
21
  3
REVITMATERIALDEFINITION10191
350
3BD
  0
DICTIONARY
  5
6E
102
{ACAD_REACTORS
330
C
102
}
330
C
100
AcDbDictionary
  3
STANDARD
350
6F
  0
DICTIONARY
  5
67
102
{ACAD_REACTORS
330
C
102
}
330
C
100
AcDbDictionary
  3
STANDARD
350
68
  0
DICTIONARY
  5
69
102
{ACAD_REACTORS
330
C
102
}
330
C
100
AcDbDictionary
  0
DICTIONARY
  5
3A
102
{ACAD_REACTORS
330
C
102
}
330
C
100
AcDbDictionary
  3
A0
350
3B
  3
A1
350
3C
  3
A2
350
3D
  3
A3
350
3E
  3
A4
350
3F
  3
A5
350
40
  3
A6
350
41
  3
A7
350
42
  3
A8
350
43
  3
A9
350
44
  3
B0
350
45
  3
B1
350
46
  3
B2
350
47
  3
B3
350
48
  3
B4
350
49
  3
B5
350
4A
  3
B6
350
4B
  3
B7
350
4C
  3
B8
350
4D
  3
B9
350
4E
  3
C0
350
4F
  3
C1
350
50
  3
C2
350
51
  3
C3
350
52
  3
C4
350
53
  3
C5
350
54
  3
C6
350
55
  3
C7
350
56
  3
C8
350
57
  3
C9
350
58
  3
D0
350
59
  3
D1
350
5A
  3
D2
350
5B
  0
DICTIONARY
  5
29
102
{ACAD_REACTORS
330
C
102
}
330
C
100
AcDbDictionary
  3
2DWIREFRAME
350
2F
  3
3D_HIDDEN
350
31
  3
3DWIREFRAME
350
30
  3
BASIC
350
2E
  3
BRIGHTEN
350
35
  3
COLORCHANGE
350
39
  3
CONCEPTUAL
350
32
  3
DIM
350
34
  3
FACEPATTERN
350
38
  3
FLAT
350
2A
  3
FLATWITHEDGES
350
2B
  3
GOURAUD
350
2C
  3
GOURAUDWITHEDGES
350
2D
  3
LINEPATTERN
350
37
  3
REALISTIC
350
33
  3
THICKEN
350
36
  0
XRECORD
  5
3C5
102
{ACAD_REACTORS
330
C
102
}
330
C
100
AcDbXrecord
 90
        1
330
6D
  0
DICTIONARY
  5
3E4
102
{ACAD_REACTORS
330
C
102
}
330
C
100
AcDbDictionary
  3
CEPSNTYPE
350
3ED
  3
COLORDICT
350
406
  3
DIMSTYLEDATA
350
403
  3
FINGERPRINTGUID
350
3EE
  3
HYPERLINKBASE
350
3E7
  3
INSUNITS
350
3EC
  3
LAYOUTDICT
350
3E9
  3
LWETCUNION
350
3EB
  3
MATERIALDICT
350
407
  3
PLOTSETDICT
350
3EA
  3
PSVPSCALE
350
3F0
  3
PUCSBASE
350
3F3
  3
PUCSORGBACK
350
3F9
  3
PUCSORGBOTTOM
350
3F5
  3
PUCSORGFRONT
350
3F8
  3
PUCSORGLEFT
350
3F6
  3
PUCSORGRIGHT
350
3F7
  3
PUCSORGTOP
350
3F4
  3
PUCSORTHOREF
350
3F1
  3
PUCSORTHOVIEW
350
3F2
  3
STYLESHEET
350
3E8
  3
TSTACKALIGN
350
3E5
  3
TSTACKSIZE
350
3E6
  3
UCSBASE
350
3FC
  3
UCSORGBACK
350
402
  3
UCSORGBOTTOM
350
3FE
  3
UCSORGFRONT
350
401
  3
UCSORGLEFT
350
3FF
  3
UCSORGRIGHT
350
400
  3
UCSORGTOP
350
3FD
  3
UCSORTHOREF
350
3FA
  3
UCSORTHOVIEW
350
3FB
  3
VERSIONGUID
350
3EF
  0
DICTIONARY
  5
3D5
102
{ACAD_REACTORS
330
C
102
}
330
C
100
AcDbDictionary
  3
CANNOSCALE
350
405
  3
CMLEADERSTYLE
350
3D7
  3
DIMASSOC
350
3E0
  3
HIDETEXT
350
3DF
  3
INDEXCTL
350
3DE
  3
LATITUDE
350
3E1
  3
LAYEREVAL
350
3DB
  3
LAYERNOTIFY
350
3DC
  3
LIGHTINGUNITS
350
3DA
  3
LONGITUDE
350
3E2
  3
MSLTSCALE
350
3D8
  3
SORTENTS
350
3DD
  3
TIMEZONE
350
3E3
  0
DICTIONARY
  5
3C0
102
{ACAD_REACTORS
330
C
102
}
330
C
100
AcDbDictionary
  3
REVIT_CATEGORY_MAPPING
350
3C1
  0
XRECORD
  5
409
102
{ACAD_REACTORS
330
408
102
}
330
408
100
AcDbXrecord
102
VTR_0.000_0.000_1.000_1.000_VISUALSTYLE
340
2D
102
VTR_0.000_0.000_1.000_1.000_GRIDDISPLAY
 70
     3
102
VTR_0.000_0.000_1.000_1.000_GRIDMAJOR
 70
     5
102
VTR_0.000_0.000_1.000_1.000_DEFAULTLIGHTING
280
     1
102
VTR_0.000_0.000_1.000_1.000_DEFAULTLIGHTINGTYPE
 70
     1
102
VTR_0.000_0.000_1.000_1.000_BRIGHTNESS
141
0.0
102
VTR_0.000_0.000_1.000_1.000_CONTRAST
142
0.0
  0
XRECORD
  5
3D3
102
{ACAD_REACTORS
330
3D2
102
}
330
3D2
100
AcDbXrecord
102
VISUALSTYLENONE
 70
     1
  0
MATERIAL
  5
19
102
{ACAD_REACTORS
330
10
102
}
102
{ACAD_XDICTIONARY
360
40A
102
}
330
10
100
AcDbMaterial
  1
ByBlock
 72
     0
 73
     2
 43
0.0208333333333333
 43
0.0
 43
0.0
 43
0.0
 43
0.0
 43
0.0208333333333333
 43
0.0
 43
0.0
 43
0.0
 43
0.0
 43
1.0
 43
0.0
 43
0.0
 43
0.0
 43
0.0
 43
1.0
 77
     0
 78
     2
 47
0.0208333333333333
 47
0.0
 47
0.0
 47
0.0
 47
0.0
 47
0.0208333333333333
 47
0.0
 47
0.0
 47
0.0
 47
0.0
 47
1.0
 47
0.0
 47
0.0
 47
0.0
 47
0.0
 47
1.0
171
     0
172
     2
 49
0.0208333333333333
 49
0.0
 49
0.0
 49
0.0
 49
0.0
 49
0.0208333333333333
 49
0.0
 49
0.0
 49
0.0
 49
0.0
 49
1.0
 49
0.0
 49
0.0
 49
0.0
 49
0.0
 49
1.0
175
     0
176
     2
142
0.0208333333333333
142
0.0
142
0.0
142
0.0
142
0.0
142
0.0208333333333333
142
0.0
142
0.0
142
0.0
142
0.0
142
1.0
142
0.0
142
0.0
142
0.0
142
0.0
142
1.0
179
     0
270
     2
144
0.0208333333333333
144
0.0
144
0.0
144
0.0
144
0.0
144
0.0208333333333333
144
0.0
144
0.0
144
0.0
144
0.0
144
1.0
144
0.0
144
0.0
144
0.0
144
0.0
144
1.0
274
     2
147
0.0208333333333333
147
0.0
147
0.0
147
0.0
147
0.0
147
0.0208333333333333
147
0.0
147
0.0
147
0.0
147
0.0
147
1.0
147
0.0
147
0.0
147
0.0
147
0.0
147
1.0
  0
MATERIAL
  5
11
102
{ACAD_REACTORS
330
10
102
}
102
{ACAD_XDICTIONARY
360
40C
102
}
330
10
100
AcDbMaterial
  1
ByLayer
 72
     0
 73
     2
 43
0.0208333333333333
 43
0.0
 43
0.0
 43
0.0
 43
0.0
 43
0.0208333333333333
 43
0.0
 43
0.0
 43
0.0
 43
0.0
 43
1.0
 43
0.0
 43
0.0
 43
0.0
 43
0.0
 43
1.0
 77
     0
 78
     2
 47
0.0208333333333333
 47
0.0
 47
0.0
 47
0.0
 47
0.0
 47
0.0208333333333333
 47
0.0
 47
0.0
 47
0.0
 47
0.0
 47
1.0
 47
0.0
 47
0.0
 47
0.0
 47
0.0
 47
1.0
171
     0
172
     2
 49
0.0208333333333333
 49
0.0
 49
0.0
 49
0.0
 49
0.0
 49
0.0208333333333333
 49
0.0
 49
0.0
 49
0.0
 49
0.0
 49
1.0
 49
0.0
 49
0.0
 49
0.0
 49
0.0
 49
1.0
175
     0
176
     2
142
0.0208333333333333
142
0.0
142
0.0
142
0.0
142
0.0
142
0.0208333333333333
142
0.0
142
0.0
142
0.0
142
0.0
142
1.0
142
0.0
142
0.0
142
0.0
142
0.0
142
1.0
179
     0
270
     2
144
0.0208333333333333
144
0.0
144
0.0
144
0.0
144
0.0
144
0.0208333333333333
144
0.0
144
0.0
144
0.0
144
0.0
144
1.0
144
0.0
144
0.0
144
0.0
144
0.0
144
1.0
274
     2
147
0.0208333333333333
147
0.0
147
0.0
147
0.0
147
0.0
147
0.0208333333333333
147
0.0
147
0.0
147
0.0
147
0.0
147
1.0
147
0.0
147
0.0
147
0.0
147
0.0
147
1.0
  0
MATERIAL
  5
21
102
{ACAD_REACTORS
330
10
102
}
102
{ACAD_XDICTIONARY
360
40E
102
}
330
10
100
AcDbMaterial
  1
Global
 72
     0
 73
     2
 43
0.0208333333333333
 43
0.0
 43
0.0
 43
0.0
 43
0.0
 43
0.0208333333333333
 43
0.0
 43
0.0
 43
0.0
 43
0.0
 43
1.0
 43
0.0
 43
0.0
 43
0.0
 43
0.0
 43
1.0
 77
     0
 78
     2
 47
0.0208333333333333
 47
0.0
 47
0.0
 47
0.0
 47
0.0
 47
0.0208333333333333
 47
0.0
 47
0.0
 47
0.0
 47
0.0
 47
1.0
 47
0.0
 47
0.0
 47
0.0
 47
0.0
 47
1.0
171
     0
172
     2
 49
0.0208333333333333
 49
0.0
 49
0.0
 49
0.0
 49
0.0
 49
0.0208333333333333
 49
0.0
 49
0.0
 49
0.0
 49
0.0
 49
1.0
 49
0.0
 49
0.0
 49
0.0
 49
0.0
 49
1.0
175
     0
176
     2
142
0.0208333333333333
142
0.0
142
0.0
142
0.0
142
0.0
142
0.0208333333333333
142
0.0
142
0.0
142
0.0
142
0.0
142
1.0
142
0.0
142
0.0
142
0.0
142
0.0
142
1.0
179
     0
270
     2
144
0.0208333333333333
144
0.0
144
0.0
144
0.0
144
0.0
144
0.0208333333333333
144
0.0
144
0.0
144
0.0
144
0.0
144
1.0
144
0.0
144
0.0
144
0.0
144
0.0
144
1.0
274
     2
147
0.0208333333333333
147
0.0
147
0.0
147
0.0
147
0.0
147
0.0208333333333333
147
0.0
147
0.0
147
0.0
147
0.0
147
1.0
147
0.0
147
0.0
147
0.0
147
0.0
147
1.0
  0
MATERIAL
  5
3BD
102
{ACAD_REACTORS
330
10
102
}
102
{ACAD_XDICTIONARY
360
3BE
102
}
330
10
100
AcDbMaterial
  1
RevitMaterialDefinition10191
 70
     1
 90
-1024133900
 71
     1
 91
-1024133900
  3
C:\Users\Robert\AppData\Local\Temp
 76
     1
 45
0.5
 92
-1040187392
 77
     0
 78
     2
172
     2
175
     0
176
     2
270
     2
145
0.0
274
     2
  0
ACAD_PROXY_OBJECT
  5
6F
102
{ACAD_REACTORS
330
6E
102
}
330
6E
100
AcDbProxyObject
 90
      499
 91
      505
 93
      610
310
40901902A4063FBFFFFFE056BD1B81E855B9FC0AD7A3703D0AD73F4214DD185B99185C9900AD7A3703D0AC73F90141901A02B5E8DC0F42B1CFC02B5E8DC0F42B1CFE5764000000000000300FC0
340
63
340
0
340
5D
340
0
 94
        0
1001
ACAD_MLEADERVER
1070
     2
  0
MLINESTYLE
  5
68
102
{ACAD_REACTORS
330
67
102
}
330
67
100
AcDbMlineStyle
  2
STANDARD
 70
     0
  3

 62
   256
 51
90.0
 52
90.0
 71
     2
 49
0.5
 62
   256
  6
BYLAYER
 49
-0.5
 62
   256
  6
BYLAYER
  0
ACAD_PROXY_OBJECT
  5
3B
102
{ACAD_REACTORS
330
3A
102
}
330
3A
100
AcDbProxyObject
 90
      499
 91
      503
 93
       41
310
903313A31580
  0
ACAD_PROXY_OBJECT
  5
3C
102
{ACAD_REACTORS
330
3A
102
}
330
3A
100
AcDbProxyObject
 90
      499
 91
      503
 93
      105
310
903313A324000000000000004000
  0
ACAD_PROXY_OBJECT
  5
3D
102
{ACAD_REACTORS
330
3A
102
}
330
3A
100
AcDbProxyObject
 90
      499
 91
      503
 93
      105
310
903313A344000000000000104000
  0
ACAD_PROXY_OBJECT
  5
3E
102
{ACAD_REACTORS
330
3A
102
}
330
3A
100
AcDbProxyObject
 90
      499
 91
      503
 93
      105
310
903313A354000000000000144000
  0
ACAD_PROXY_OBJECT
  5
3F
102
{ACAD_REACTORS
330
3A
102
}
330
3A
100
AcDbProxyObject
 90
      499
 91
      503
 93
      105
310
903313A384000000000000204000
  0
ACAD_PROXY_OBJECT
  5
40
102
{ACAD_REACTORS
330
3A
102
}
330
3A
100
AcDbProxyObject
 90
      499
 91
      503
 93
      113
310
904313A31304000000000000244000
  0
ACAD_PROXY_OBJECT
  5
41
102
{ACAD_REACTORS
330
3A
102
}
330
3A
100
AcDbProxyObject
 90
      499
 91
      503
 93
      113
310
904313A31364000000000000304000
  0
ACAD_PROXY_OBJECT
  5
42
102
{ACAD_REACTORS
330
3A
102
}
330
3A
100
AcDbProxyObject
 90
      499
 91
      503
 93
      113
310
904313A32304000000000000344000
  0
ACAD_PROXY_OBJECT
  5
43
102
{ACAD_REACTORS
330
3A
102
}
330
3A
100
AcDbProxyObject
 90
      499
 91
      503
 93
      113
310
904313A333040000000000003E4000
  0
ACAD_PROXY_OBJECT
  5
44
102
{ACAD_REACTORS
330
3A
102
}
330
3A
100
AcDbProxyObject
 90
      499
 91
      503
 93
      113
310
904313A34304000000000000444000
  0
ACAD_PROXY_OBJECT
  5
45
102
{ACAD_REACTORS
330
3A
102
}
330
3A
100
AcDbProxyObject
 90
      499
 91
      503
 93
      113
310
904313A35304000000000000494000
  0
ACAD_PROXY_OBJECT
  5
46
102
{ACAD_REACTORS
330
3A
102
}
330
3A
100
AcDbProxyObject
 90
      499
 91
      503
 93
      121
310
905313A3130304000000000000594000
  0
ACAD_PROXY_OBJECT
  5
47
102
{ACAD_REACTORS
330
3A
102
}
330
3A
100
AcDbProxyObject
 90
      499
 91
      503
 93
      105
310
903323A310000000000000010100
  0
ACAD_PROXY_OBJECT
  5
48
102
{ACAD_REACTORS
330
3A
102
}
330
3A
100
AcDbProxyObject
 90
      499
 91
      503
 93
      105
310
903343A310000000000000410100
  0
ACAD_PROXY_OBJECT
  5
49
102
{ACAD_REACTORS
330
3A
102
}
330
3A
100
AcDbProxyObject
 90
      499
 91
      503
 93
      105
310
903383A310000000000000810100
  0
ACAD_PROXY_OBJECT
  5
4A
102
{ACAD_REACTORS
330
3A
102
}
330
3A
100
AcDbProxyObject
 90
      499
 91
      503
 93
      113
310
90431303A310000000000000910100
  0
ACAD_PROXY_OBJECT
  5
4B
102
{ACAD_REACTORS
330
3A
102
}
330
3A
100
AcDbProxyObject
 90
      499
 91
      503
 93
      121
310
9053130303A310000000000001650100
  0
ACAD_PROXY_OBJECT
  5
4C
102
{ACAD_REACTORS
330
3A
102
}
330
3A
100
AcDbProxyObject
 90
      499
 91
      503
 93
      257
310
90E312F31323822203D2031272D3022000000000000200FC000000000000284000
  0
ACAD_PROXY_OBJECT
  5
4D
102
{ACAD_REACTORS
330
3A
102
}
330
3A
100
AcDbProxyObject
 90
      499
 91
      503
 93
      249
310
90D312F363422203D2031272D3022000000000000240FC000000000000284000
  0
ACAD_PROXY_OBJECT
  5
4E
102
{ACAD_REACTORS
330
3A
102
}
330
3A
100
AcDbProxyObject
 90
      499
 91
      503
 93
      249
310
90D312F333222203D2031272D3022000000000000280FC000000000000284000
  0
ACAD_PROXY_OBJECT
  5
4F
102
{ACAD_REACTORS
330
3A
102
}
330
3A
100
AcDbProxyObject
 90
      499
 91
      503
 93
      249
310
90D312F313622203D2031272D30220000000000002C0FC000000000000284000
  0
ACAD_PROXY_OBJECT
  5
50
102
{ACAD_REACTORS
330
3A
102
}
330
3A
100
AcDbProxyObject
 90
      499
 91
      503
 93
      249
310
90D332F333222203D2031272D30220000000000002E0FC000000000000284000
  0
ACAD_PROXY_OBJECT
  5
51
102
{ACAD_REACTORS
330
3A
102
}
330
3A
100
AcDbProxyObject
 90
      499
 91
      503
 93
      241
310
90C312F3822203D2031272D3022000000000000300FC000000000000284000
  0
ACAD_PROXY_OBJECT
  5
52
102
{ACAD_REACTORS
330
3A
102
}
330
3A
100
AcDbProxyObject
 90
      499
 91
      503
 93
      249
310
90D332F313622203D2031272D3022000000000000320FC000000000000284000
  0
ACAD_PROXY_OBJECT
  5
53
102
{ACAD_REACTORS
330
3A
102
}
330
3A
100
AcDbProxyObject
 90
      499
 91
      503
 93
      241
310
90C312F3422203D2031272D3022000000000000340FC000000000000284000
  0
ACAD_PROXY_OBJECT
  5
54
102
{ACAD_REACTORS
330
3A
102
}
330
3A
100
AcDbProxyObject
 90
      499
 91
      503
 93
      241
310
90C332F3822203D2031272D3022000000000000360FC000000000000284000
  0
ACAD_PROXY_OBJECT
  5
55
102
{ACAD_REACTORS
330
3A
102
}
330
3A
100
AcDbProxyObject
 90
      499
 91
      503
 93
      241
310
90C312F3222203D2031272D3022000000000000380FC000000000000284000
  0
ACAD_PROXY_OBJECT
  5
56
102
{ACAD_REACTORS
330
3A
102
}
330
3A
100
AcDbProxyObject
 90
      499
 91
      503
 93
      241
310
90C332F3422203D2031272D30220000000000003A0FC000000000000284000
  0
ACAD_PROXY_OBJECT
  5
57
102
{ACAD_REACTORS
330
3A
102
}
330
3A
100
AcDbProxyObject
 90
      499
 91
      503
 93
      161
310
90A3122203D2031272D30224000000000000284000
  0
ACAD_PROXY_OBJECT
  5
58
102
{ACAD_REACTORS
330
3A
102
}
330
3A
100
AcDbProxyObject
 90
      499
 91
      503
 93
      257
310
90E312D312F3222203D2031272D30220000000000003E0FC000000000000284000
  0
ACAD_PROXY_OBJECT
  5
59
102
{ACAD_REACTORS
330
3A
102
}
330
3A
100
AcDbProxyObject
 90
      499
 91
      503
 93
      225
310
90A3322203D2031272D302200000000000002100000000000000284000
  0
ACAD_PROXY_OBJECT
  5
5A
102
{ACAD_REACTORS
330
3A
102
}
330
3A
100
AcDbProxyObject
 90
      499
 91
      503
 93
      225
310
90A3622203D2031272D302200000000000006100000000000000284000
  0
ACAD_PROXY_OBJECT
  5
5B
102
{ACAD_REACTORS
330
3A
102
}
330
3A
100
AcDbProxyObject
 90
      499
 91
      503
 93
      249
310
90D31272D3022203D2031272D30220000000000000A100000000000000284000
  0
ACAD_PROXY_OBJECT
  5
2F
102
{ACAD_REACTORS
330
29
102
}
330
29
100
AcDbProxyObject
 90
      499
 91
      502
 93
      436
310
42CC9915DA5C99599C985B595049028333333333333E3BF0000000000000FB0107901411070040501600405405064090741402480A0340
1001
ACAD
1000
AcDbSavedByObjectVersion
1070
     0
  0
ACAD_PROXY_OBJECT
  5
31
102
{ACAD_REACTORS
330
29
102
}
330
29
100
AcDbProxyObject
 90
      499
 91
      502
 93
      500
310
424CD108121A5919195B90640502408333333333333E3BF0000000000000FB01079024090700405020000000000001110200405405064090740C02480A0340
1001
ACAD
1000
AcDbSavedByObjectVersion
1070
     0
  0
ACAD_PROXY_OBJECT
  5
30
102
{ACAD_REACTORS
330
29
102
}
330
29
100
AcDbProxyObject
 90
      499
 91
      502
 93
      436
310
42CCD915DA5C99599C985B595059028333333333333E3BF0000000000000FB0107901411070040501600405405064090741402480A0340
1001
ACAD
1000
AcDbSavedByObjectVersion
1070
     0
  0
ACAD_PROXY_OBJECT
  5
2E
102
{ACAD_REACTORS
330
29
102
}
330
29
100
AcDbProxyObject
 90
      499
 91
      502
 93
      388
310
4150985CDA58D07406404333333333333E3BF0000000000000FB0107A41107004050150841D405064090741402480A0350
1001
ACAD
1000
AcDbSavedByObjectVersion
1070
     0
  0
ACAD_PROXY_OBJECT
  5
35
102
{ACAD_REACTORS
330
29
102
}
330
29
100
AcDbProxyObject
 90
      499
 91
      502
 93
      428
310
42109C9A59DA1D195B90C409028333333333333E3BF0000000000000FB010790141107004050150841D405064090741402480A029950
1001
ACAD
1000
AcDbSavedByObjectVersion
1070
     0
  0
ACAD_PROXY_OBJECT
  5
39
102
{ACAD_REACTORS
330
29
102
}
330
29
100
AcDbProxyObject
 90
      499
 91
      502
 93
      452
310
42D0DBDB1BDC90DA185B99D95104090240C333333333333E3BF0000000000000FB0108901411070040501508421405064090741402480A0350
1001
ACAD
1000
AcDbSavedByObjectVersion
1070
     0
  0
ACAD_PROXY_OBJECT
  5
32
102
{ACAD_REACTORS
330
29
102
}
330
29
100
AcDbProxyObject
 90
      499
 91
      502
 93
      500
310
4290DBDB98D95C1D1D585B10940D028333333333333E3BF0000000000000FB0107902409070040501000000000000111010841D405064090740C02480A0340
1001
ACAD
1000
AcDbSavedByObjectVersion
1070
     0
  0
ACAD_PROXY_OBJECT
  5
34
102
{ACAD_REACTORS
330
29
102
}
330
29
100
AcDbProxyObject
 90
      499
 91
      502
 93
      412
310
40D11A5B50B409028333333333333E3BF0000000000000FB010790141107004050150841D405064090741402480A02677FFFFFD0
1001
ACAD
1000
AcDbSavedByObjectVersion
1070
     0
  0
ACAD_PROXY_OBJECT
  5
38
102
{ACAD_REACTORS
330
29
102
}
330
29
100
AcDbProxyObject
 90
      499
 91
      502
 93
      444
310
42D19858D95C185D1D195C9B90F409028333333333333E3BF0000000000000FB010790141107004050150841D405064090741402480A0350
1001
ACAD
1000
AcDbSavedByObjectVersion
1070
     0
  0
ACAD_PROXY_OBJECT
  5
2A
102
{ACAD_REACTORS
330
29
102
}
330
29
100
AcDbProxyObject
 90
      499
 91
      502
 93
      388
310
41119B185D240901404333333333333E3BF0000000000000F9010740A41107004050150841D405064090741402480A1B50
1001
ACAD
1000
AcDbSavedByObjectVersion
1070
     0
  0
ACAD_PROXY_OBJECT
  5
2B
102
{ACAD_REACTORS
330
29
102
}
330
29
100
AcDbProxyObject
 90
      499
 91
      502
 93
      476
310
43519B185D15DA5D1A115919D95CD0140901404333333333333E3BF0000000000000F9010740901411070040501600405405064090741402480A1B50
1001
ACAD
1000
AcDbSavedByObjectVersion
1070
     0
  0
ACAD_PROXY_OBJECT
  5
2C
102
{ACAD_REACTORS
330
29
102
}
330
29
100
AcDbProxyObject
 90
      499
 91
      502
 93
      412
310
41D1DBDD5C985D5910240902404333333333333E3BF0000000000000F9010740A411070040501641D405064090741402480A1B50
1001
ACAD
1000
AcDbSavedByObjectVersion
1070
     0
  0
ACAD_PROXY_OBJECT
  5
2D
102
{ACAD_REACTORS
330
29
102
}
330
29
100
AcDbProxyObject
 90
      499
 91
      502
 93
      500
310
4411DBDD5C985D5915DA5D1A115919D95CD0340902404333333333333E3BF0000000000000F9010740901411070040501600405405064090741402480A1B50
1001
ACAD
1000
AcDbSavedByObjectVersion
1070
     0
  0
ACAD_PROXY_OBJECT
  5
37
102
{ACAD_REACTORS
330
29
102
}
330
29
100
AcDbProxyObject
 90
      499
 91
      502
 93
      444
310
42D31A5B995C185D1D195C9B90E409028333333333333E3BF0000000000000FB010790141107004050750841D405064090741402483A0350
1001
ACAD
1000
AcDbSavedByObjectVersion
1070
     0
  0
ACAD_PROXY_OBJECT
  5
33
102
{ACAD_REACTORS
330
29
102
}
330
29
100
AcDbProxyObject
 90
      499
 91
      502
 93
      420
310
425499585B1A5CDD1A58D08409028333333333333E3BF0000000000000FB01079019070040501508421405064090741402480A1B40
1001
ACAD
1000
AcDbSavedByObjectVersion
1070
     0
  0
ACAD_PROXY_OBJECT
  5
36
102
{ACAD_REACTORS
330
29
102
}
330
29
100
AcDbProxyObject
 90
      499
 91
      502
 93
      412
310
41D51A1A58DAD95B90D409028333333333333E3BF0000000000000FB010790141107004050150C41D405064090741402480A0350
1001
ACAD
1000
AcDbSavedByObjectVersion
1070
     0
  0
XRECORD
  5
3ED
102
{ACAD_REACTORS
330
3E4
102
}
330
3E4
100
AcDbXrecord
 90
        0
  0
XRECORD
  5
406
102
{ACAD_REACTORS
330
3E4
102
}
330
3E4
100
AcDbXrecord
340
6B
  0
XRECORD
  5
403
102
{ACAD_REACTORS
330
3E4
102
}
330
3E4
100
AcDbXrecord
1000
DSTYLE
1002
{
1070
   273
 70
     4
1070
   277
 70
     4
1070
   340
340
5D
1002
}
  0
XRECORD
  5
3EE
102
{ACAD_REACTORS
330
3E4
102
}
330
3E4
100
AcDbXrecord
  1
{A852B5E1-0DBC-46E4-AA85-B2D39B2656F3}
  0
XRECORD
  5
3E7
102
{ACAD_REACTORS
330
3E4
102
}
330
3E4
100
AcDbXrecord
  1

  0
XRECORD
  5
3EC
102
{ACAD_REACTORS
330
3E4
102
}
330
3E4
100
AcDbXrecord
 90
        1
  0
XRECORD
  5
3E9
102
{ACAD_REACTORS
330
3E4
102
}
330
3E4
100
AcDbXrecord
340
6A
  0
XRECORD
  5
3EB
102
{ACAD_REACTORS
330
3E4
102
}
330
3E4
100
AcDbXrecord
 90
    10781
  0
XRECORD
  5
407
102
{ACAD_REACTORS
330
3E4
102
}
330
3E4
100
AcDbXrecord
340
10
  0
XRECORD
  5
3EA
102
{ACAD_REACTORS
330
3E4
102
}
330
3E4
100
AcDbXrecord
340
69
  0
XRECORD
  5
3F0
102
{ACAD_REACTORS
330
3E4
102
}
330
3E4
100
AcDbXrecord
 40
0.0
  0
XRECORD
  5
3F3
102
{ACAD_REACTORS
330
3E4
102
}
330
3E4
100
AcDbXrecord
340
0
  0
XRECORD
  5
3F9
102
{ACAD_REACTORS
330
3E4
102
}
330
3E4
100
AcDbXrecord
 10
0.0
 20
0.0
 30
0.0
  0
XRECORD
  5
3F5
102
{ACAD_REACTORS
330
3E4
102
}
330
3E4
100
AcDbXrecord
 10
0.0
 20
0.0
 30
0.0
  0
XRECORD
  5
3F8
102
{ACAD_REACTORS
330
3E4
102
}
330
3E4
100
AcDbXrecord
 10
0.0
 20
0.0
 30
0.0
  0
XRECORD
  5
3F6
102
{ACAD_REACTORS
330
3E4
102
}
330
3E4
100
AcDbXrecord
 10
0.0
 20
0.0
 30
0.0
  0
XRECORD
  5
3F7
102
{ACAD_REACTORS
330
3E4
102
}
330
3E4
100
AcDbXrecord
 10
0.0
 20
0.0
 30
0.0
  0
XRECORD
  5
3F4
102
{ACAD_REACTORS
330
3E4
102
}
330
3E4
100
AcDbXrecord
 10
0.0
 20
0.0
 30
0.0
  0
XRECORD
  5
3F1
102
{ACAD_REACTORS
330
3E4
102
}
330
3E4
100
AcDbXrecord
340
0
  0
XRECORD
  5
3F2
102
{ACAD_REACTORS
330
3E4
102
}
330
3E4
100
AcDbXrecord
 70
     0
  0
XRECORD
  5
3E8
102
{ACAD_REACTORS
330
3E4
102
}
330
3E4
100
AcDbXrecord
  1

  0
XRECORD
  5
3E5
102
{ACAD_REACTORS
330
3E4
102
}
330
3E4
100
AcDbXrecord
 90
        1
  0
XRECORD
  5
3E6
102
{ACAD_REACTORS
330
3E4
102
}
330
3E4
100
AcDbXrecord
 90
       70
  0
XRECORD
  5
3FC
102
{ACAD_REACTORS
330
3E4
102
}
330
3E4
100
AcDbXrecord
340
0
  0
XRECORD
  5
402
102
{ACAD_REACTORS
330
3E4
102
}
330
3E4
100
AcDbXrecord
 10
0.0
 20
0.0
 30
0.0
  0
XRECORD
  5
3FE
102
{ACAD_REACTORS
330
3E4
102
}
330
3E4
100
AcDbXrecord
 10
0.0
 20
0.0
 30
0.0
  0
XRECORD
  5
401
102
{ACAD_REACTORS
330
3E4
102
}
330
3E4
100
AcDbXrecord
 10
0.0
 20
0.0
 30
0.0
  0
XRECORD
  5
3FF
102
{ACAD_REACTORS
330
3E4
102
}
330
3E4
100
AcDbXrecord
 10
0.0
 20
0.0
 30
0.0
  0
XRECORD
  5
400
102
{ACAD_REACTORS
330
3E4
102
}
330
3E4
100
AcDbXrecord
 10
0.0
 20
0.0
 30
0.0
  0
XRECORD
  5
3FD
102
{ACAD_REACTORS
330
3E4
102
}
330
3E4
100
AcDbXrecord
 10
0.0
 20
0.0
 30
0.0
  0
XRECORD
  5
3FA
102
{ACAD_REACTORS
330
3E4
102
}
330
3E4
100
AcDbXrecord
340
0
  0
XRECORD
  5
3FB
102
{ACAD_REACTORS
330
3E4
102
}
330
3E4
100
AcDbXrecord
 70
     0
  0
XRECORD
  5
3EF
102
{ACAD_REACTORS
330
3E4
102
}
330
3E4
100
AcDbXrecord
  1
{2D3D30F8-CB44-479D-87AD-BF9F9B548105}
  0
DICTIONARYVAR
  5
405
102
{ACAD_REACTORS
330
3D5
102
}
330
3D5
100
DictionaryVariables
280
     0
  1
1:1
  0
DICTIONARYVAR
  5
3D7
102
{ACAD_REACTORS
330
3D5
102
}
330
3D5
100
DictionaryVariables
280
     0
  1
Standard
  0
DICTIONARYVAR
  5
3E0
102
{ACAD_REACTORS
330
3D5
102
}
330
3D5
100
DictionaryVariables
280
     0
  1
2
  0
DICTIONARYVAR
  5
3DF
102
{ACAD_REACTORS
330
3D5
102
}
330
3D5
100
DictionaryVariables
280
     0
  1
1
  0
DICTIONARYVAR
  5
3DE
102
{ACAD_REACTORS
330
3D5
102
}
330
3D5
100
DictionaryVariables
280
     0
  1
0
  0
DICTIONARYVAR
  5
3E1
102
{ACAD_REACTORS
330
3D5
102
}
330
3D5
100
DictionaryVariables
280
     0
  1
0.000000
  0
DICTIONARYVAR
  5
3DB
102
{ACAD_REACTORS
330
3D5
102
}
330
3D5
100
DictionaryVariables
280
     0
  1
0
  0
DICTIONARYVAR
  5
3DC
102
{ACAD_REACTORS
330
3D5
102
}
330
3D5
100
DictionaryVariables
280
     0
  1
0
  0
DICTIONARYVAR
  5
3DA
102
{ACAD_REACTORS
330
3D5
102
}
330
3D5
100
DictionaryVariables
280
     0
  1
2
  0
DICTIONARYVAR
  5
3E2
102
{ACAD_REACTORS
330
3D5
102
}
330
3D5
100
DictionaryVariables
280
     0
  1
0.000000
  0
DICTIONARYVAR
  5
3D8
102
{ACAD_REACTORS
330
3D5
102
}
330
3D5
100
DictionaryVariables
280
     0
  1
1
  0
DICTIONARYVAR
  5
3DD
102
{ACAD_REACTORS
330
3D5
102
}
330
3D5
100
DictionaryVariables
280
     0
  1
127
  0
DICTIONARYVAR
  5
3E3
102
{ACAD_REACTORS
330
3D5
102
}
330
3D5
100
DictionaryVariables
280
     0
  1
0
  0
XRECORD
  5
3C1
102
{ACAD_REACTORS
330
3C0
102
}
330
3C0
100
AcDbXrecord
  1
-2000014
  1
Windows
  0
DICTIONARY
  5
40A
330
19
100
AcDbDictionary
280
     1
  3
ACAD_XREC_ROUNDTRIP
360
40B
  0
DICTIONARY
  5
40C
330
11
100
AcDbDictionary
280
     1
  3
ACAD_XREC_ROUNDTRIP
360
40D
  0
DICTIONARY
  5
40E
330
21
100
AcDbDictionary
280
     1
  3
ACAD_XREC_ROUNDTRIP
360
40F
  0
DICTIONARY
  5
3BE
330
3BD
100
AcDbDictionary
280
     1
  3
ACAD_XREC_ROUNDTRIP
360
410
  3
VIZ_XML_MATERIAL_DEFINITION
360
3BF
  0
XRECORD
  5
40B
102
{ACAD_REACTORS
330
40A
102
}
330
40A
100
AcDbXrecord
102
MATERIAL
148
0.0
149
0.0
149
0.0
 93
        0
 94
      127
282
     0
 72
     0
 77
     0
171
     0
175
     0
179
     0
273
     0
  0
XRECORD
  5
40D
102
{ACAD_REACTORS
330
40C
102
}
330
40C
100
AcDbXrecord
102
MATERIAL
148
0.0
149
0.0
149
0.0
 93
        0
 94
      127
282
     0
 72
     0
 77
     0
171
     0
175
     0
179
     0
273
     0
  0
XRECORD
  5
40F
102
{ACAD_REACTORS
330
40E
102
}
330
40E
100
AcDbXrecord
102
MATERIAL
148
0.0
149
0.0
149
0.0
 93
        0
 94
      127
282
     0
 72
     0
 77
     0
171
     0
175
     0
179
     0
273
     0
  0
XRECORD
  5
410
102
{ACAD_REACTORS
330
3BE
102
}
330
3BE
100
AcDbXrecord
102
MATERIAL
148
0.0
149
0.0
149
0.0
 93
        0
 94
      127
282
     0
 72
     1
 77
     0
171
     1
175
     0
179
     1
273
     0
  0
XRECORD
  5
3BF
102
{ACAD_REACTORS
330
3BE
102
}
330
3BE
100
AcDbXrecord
300
<Material id="RevitMaterialDefinition10191" app="REVIT" Background="0" Backlight="1" Sample="0" Tiling="0">^J<LinearUnits unitType="foot" unitScale="1.0"/>^J<ArchitecturalMaterial name="Mirror Finish Aluminum">^J<ArchTemplateParameters name="Mirror Finish Al
300
uminum" classid_A="2008828122" classid_B="14503598">^J</ArchTemplateParameters>^J<ArchMatParameters>^J<ArchDiffuseColor>^J<RGBf r="0.9569" g="0.9569" b="0.9569"/>^J</ArchDiffuseColor>^J<ArchIndexOfRefraction>1.5000</ArchIndexOfRefraction>^J<ArchTransparency>0.00
300
00</ArchTransparency>^J<ArchLuminance>0.0000</ArchLuminance>^J</ArchMatParameters>^J<MapSet>^J<MapLib>^J<TextureMap name="Mirror Finish Aluminum texture" id="RevitTextureDefinition10191">^J<BitmapMap>^J<TexMapCoords2d>^J<TextureCoords>^J<ExplicitMapChannel CoordPl
300
ane="uv">^J<MapChannel>1</MapChannel>^J<UCoords>^J<OffsetCoord>0.0000</OffsetCoord>^J<TilingCoord>0.0000</TilingCoord>^J<TextureTiling Tiling="tile"/>^J</UCoords>^J<VCoords>^J<OffsetCoord>0.0000</OffsetCoord>^J<TilingCoord>0.0000</TilingCoord>^J<TextureTiling Tilin
300
g="tile"/>^J</VCoords>^J</ExplicitMapChannel>^J</TextureCoords>^J</TexMapCoords2d>^J<BitmapParameters>^J<BitmapFile filename="C:\Users\Robert\AppData\Local\Temp"/>^J<Cropping on="0" CropType="crop">^J<UCrop>0.0</UCrop>^J<VCrop>0.0</VCrop>^J<WCrop>1.0</WCrop>^J<HCrop
300
>1.0</HCrop>^J</Cropping>^J</BitmapParameters>^J</BitmapMap>^J</TextureMap>^J</MapLib>^J<Map on="1" TexMapChannelNum="1" TexMapChannel="Diffuse Map" Amount="100" TexMapRef="RevitTextureDefinition10191"/>^J</MapSet>^J</ArchitecturalMaterial>^J</Material>^J
  0
ENDSEC
  0
EOF
