  0
SECTION
  2
HEADER
  9
$ACADVER
  1
AC1014
  9
$ACADMAINTVER
 70
     9
  9
$DWGCODEPAGE
  3
ANSI_1252
  9
$INSBASE
 10
0.0
 20
0.0
 30
0.0
  9
$EXTMIN
 10
-60.62891006469726
 20
-59.09488677978515
 30
-26.00000000999998
  9
$EXTMAX
 10
59.37108993530273
 20
60.90511322021484
 30
22.00000001000002
  9
$LIMMIN
 10
0.0
 20
0.0
  9
$LIMMAX
 10
12.0
 20
9.0
  9
$ORTHOMODE
 70
     0
  9
$REGENMODE
 70
     1
  9
$FILLMODE
 70
     1
  9
$QTEXTMODE
 70
     0
  9
$MIRRTEXT
 70
     0
  9
$DRAGMODE
 70
     2
  9
$LTSCALE
 40
1.0
  9
$OSMODE
 70
    37
  9
$ATTMODE
 70
     1
  9
$TEXTSIZE
 40
0.2
  9
$TRACEWID
 40
0.05
  9
$TEXTSTYLE
  7
STANDARD
  9
$CLAYER
  8
0
  9
$CELTYPE
  6
BYLAYER
  9
$CECOLOR
 62
   256
  9
$CELTSCALE
 40
1.0
  9
$DELOBJ
 70
     1
  9
$DISPSILH
 70
     0
  9
$DIMSCALE
 40
1.0
  9
$DIMASZ
 40
0.18
  9
$DIMEXO
 40
0.0625
  9
$DIMDLI
 40
0.38
  9
$DIMRND
 40
0.0
  9
$DIMDLE
 40
0.0
  9
$DIMEXE
 40
0.18
  9
$DIMTP
 40
0.0
  9
$DIMTM
 40
0.0
  9
$DIMTXT
 40
0.18
  9
$DIMCEN
 40
0.09
  9
$DIMTSZ
 40
0.0
  9
$DIMTOL
 70
     0
  9
$DIMLIM
 70
     0
  9
$DIMTIH
 70
     1
  9
$DIMTOH
 70
     1
  9
$DIMSE1
 70
     0
  9
$DIMSE2
 70
     0
  9
$DIMTAD
 70
     0
  9
$DIMZIN
 70
     0
  9
$DIMBLK
  1

  9
$DIMASO
 70
     1
  9
$DIMSHO
 70
     1
  9
$DIMPOST
  1

  9
$DIMAPOST
  1

  9
$DIMALT
 70
     0
  9
$DIMALTD
 70
     2
  9
$DIMALTF
 40
25.4
  9
$DIMLFAC
 40
1.0
  9
$DIMTOFL
 70
     0
  9
$DIMTVP
 40
0.0
  9
$DIMTIX
 70
     0
  9
$DIMSOXD
 70
     0
  9
$DIMSAH
 70
     0
  9
$DIMBLK1
  1

  9
$DIMBLK2
  1

  9
$DIMSTYLE
  2
STANDARD
  9
$DIMCLRD
 70
     0
  9
$DIMCLRE
 70
     0
  9
$DIMCLRT
 70
     0
  9
$DIMTFAC
 40
1.0
  9
$DIMGAP
 40
0.09
  9
$DIMJUST
 70
     0
  9
$DIMSD1
 70
     0
  9
$DIMSD2
 70
     0
  9
$DIMTOLJ
 70
     1
  9
$DIMTZIN
 70
     0
  9
$DIMALTZ
 70
     0
  9
$DIMALTTZ
 70
     0
  9
$DIMFIT
 70
     3
  9
$DIMUPT
 70
     0
  9
$DIMUNIT
 70
     4
  9
$DIMDEC
 70
     4
  9
$DIMTDEC
 70
     4
  9
$DIMALTU
 70
     4
  9
$DIMALTTD
 70
     2
  9
$DIMTXSTY
  7
STANDARD
  9
$DIMAUNIT
 70
     0
  9
$LUNITS
 70
     4
  9
$LUPREC
 70
     4
  9
$SKETCHINC
 40
0.1
  9
$FILLETRAD
 40
0.0
  9
$AUNITS
 70
     0
  9
$AUPREC
 70
     0
  9
$MENU
  1
.
  9
$ELEVATION
 40
0.0
  9
$PELEVATION
 40
0.0
  9
$THICKNESS
 40
0.0
  9
$LIMCHECK
 70
     0
  9
$CHAMFERA
 40
0.0
  9
$CHAMFERB
 40
0.0
  9
$CHAMFERC
 40
0.0
  9
$CHAMFERD
 40
0.0
  9
$SKPOLY
 70
     0
  9
$TDCREATE
 40
2455296.505936435
  9
$TDUPDATE
 40
2455296.505936435
  9
$TDINDWG
 40
0.0
  9
$TDUSRTIMER
 40
0.0
  9
$USRTIMER
 70
     1
  9
$ANGBASE
 50
0.0
  9
$ANGDIR
 70
     0
  9
$PDMODE
 70
     0
  9
$PDSIZE
 40
0.0
  9
$PLINEWID
 40
0.0
  9
$COORDS
 70
     1
  9
$SPLFRAME
 70
     0
  9
$SPLINETYPE
 70
     6
  9
$SPLINESEGS
 70
     8
  9
$ATTDIA
 70
     0
  9
$ATTREQ
 70
     1
  9
$HANDLING
 70
     1
  9
$HANDSEED
  5
4A6
  9
$SURFTAB1
 70
     6
  9
$SURFTAB2
 70
     6
  9
$SURFTYPE
 70
     6
  9
$SURFU
 70
     6
  9
$SURFV
 70
     6
  9
$UCSNAME
  2

  9
$UCSORG
 10
0.0
 20
0.0
 30
0.0
  9
$UCSXDIR
 10
1.0
 20
0.0
 30
0.0
  9
$UCSYDIR
 10
0.0
 20
1.0
 30
0.0
  9
$PUCSNAME
  2

  9
$PUCSORG
 10
0.0
 20
0.0
 30
0.0
  9
$PUCSXDIR
 10
1.0
 20
0.0
 30
0.0
  9
$PUCSYDIR
 10
0.0
 20
1.0
 30
0.0
  9
$USERI1
 70
     0
  9
$USERI2
 70
     0
  9
$USERI3
 70
     0
  9
$USERI4
 70
     0
  9
$USERI5
 70
     0
  9
$USERR1
 40
0.0
  9
$USERR2
 40
0.0
  9
$USERR3
 40
0.0
  9
$USERR4
 40
0.0
  9
$USERR5
 40
0.0
  9
$WORLDVIEW
 70
     1
  9
$SHADEDGE
 70
     3
  9
$SHADEDIF
 70
    70
  9
$TILEMODE
 70
     1
  9
$MAXACTVP
 70
    64
  9
$PINSBASE
 10
0.0
 20
0.0
 30
0.0
  9
$PLIMCHECK
 70
     0
  9
$PEXTMIN
 10
1.000000000000000E+20
 20
1.000000000000000E+20
 30
1.000000000000000E+20
  9
$PEXTMAX
 10
-1.000000000000000E+20
 20
-1.000000000000000E+20
 30
-1.000000000000000E+20
  9
$PLIMMIN
 10
0.0
 20
0.0
  9
$PLIMMAX
 10
12.0
 20
9.0
  9
$UNITMODE
 70
     0
  9
$VISRETAIN
 70
     1
  9
$PLINEGEN
 70
     0
  9
$PSLTSCALE
 70
     1
  9
$TREEDEPTH
 70
  3020
  9
$PICKSTYLE
 70
     1
  9
$CMLSTYLE
  2
STANDARD
  9
$CMLJUST
 70
     0
  9
$CMLSCALE
 40
1.0
  9
$PROXYGRAPHICS
 70
     1
  9
$MEASUREMENT
 70
     0
  0
ENDSEC
  0
SECTION
  2
CLASSES
  0
CLASS
  1
ACDBDICTIONARYWDFLT
  2
AcDbDictionaryWithDefault
  3
ObjectDBX Classes
 90
        0
280
     0
281
     0
  0
CLASS
  1
MATERIAL
  2
AcDbMaterial
  3
ObjectDBX Classes
 90
     1153
280
     0
281
     0
  0
CLASS
  1
VISUALSTYLE
  2
AcDbVisualStyle
  3
ObjectDBX Classes
 90
     4095
280
     0
281
     0
  0
CLASS
  1
SCALE
  2
AcDbScale
  3
ObjectDBX Classes
 90
     1153
280
     0
281
     0
  0
CLASS
  1
TABLESTYLE
  2
AcDbTableStyle
  3
ObjectDBX Classes
 90
     4095
280
     0
281
     0
  0
CLASS
  1
MLEADERSTYLE
  2
AcDbMLeaderStyle
  3
ACDB_MLEADERSTYLE_CLASS
 90
     4095
280
     0
281
     0
  0
CLASS
  1
CELLSTYLEMAP
  2
AcDbCellStyleMap
  3
ObjectDBX Classes
 90
     1152
280
     0
281
     0
  0
CLASS
  1
DICTIONARYVAR
  2
AcDbDictionaryVar
  3
ObjectDBX Classes
 90
        0
280
     0
281
     0
  0
CLASS
  1
ACDBPLACEHOLDER
  2
AcDbPlaceHolder
  3
ObjectDBX Classes
 90
        0
280
     0
281
     0
  0
CLASS
  1
LAYOUT
  2
AcDbLayout
  3
ObjectDBX Classes
 90
        0
280
     0
281
     0
  0
CLASS
  1
XRECORD
  2
AcDbXrecord
  3
AutoCAD 2000
 90
        0
280
     0
281
     0
  0
CLASS
  1
LWPOLYLINE
  2
AcDbPolyline
  3
AutoCAD 2000
 90
        0
280
     0
281
     1
  0
CLASS
  1
HATCH
  2
AcDbHatch
  3
AutoCAD 2000
 90
        0
280
     0
281
     1
  0
ENDSEC
  0
SECTION
  2
TABLES
  0
TABLE
  2
VPORT
  5
8
102
{ACAD_XDICTIONARY
360
49A
102
}
330
0
100
AcDbSymbolTable
 70
     1
  0
VPORT
  5
5F
330
8
100
AcDbSymbolTableRecord
100
AcDbViewportTableRecord
  2
*ACTIVE
 70
     0
 10
0.0
 20
0.0
 11
1.0
 21
1.0
 12
-0.6289100646972656
 22
0.9051132202148438
 13
0.0
 23
0.0
 14
1.0
 24
1.0
 15
0.0
 25
0.0
 16
61.14113767648358
 26
-61.14113767648358
 36
61.14113767648358
 17
-0.6289114749701986
 27
0.9051121939098506
 37
0.000000000000024
 40
120.0
 41
1.0
 42
50.0
 43
0.0
 44
0.0
 50
0.0
 51
0.0
 71
     0
 72
   100
 73
     1
 74
     1
 75
     0
 76
     0
 77
     0
 78
     0
  0
ENDTAB
  0
TABLE
  2
LTYPE
  5
5
330
0
100
AcDbSymbolTable
 70
     1
  0
LTYPE
  5
63
330
5
100
AcDbSymbolTableRecord
100
AcDbLinetypeTableRecord
  2
BYBLOCK
 70
     0
  3

 72
    65
 73
     0
 40
0.0
  0
LTYPE
  5
64
330
5
100
AcDbSymbolTableRecord
100
AcDbLinetypeTableRecord
  2
BYLAYER
 70
     0
  3

 72
    65
 73
     0
 40
0.0
  0
LTYPE
  5
65
330
5
100
AcDbSymbolTableRecord
100
AcDbLinetypeTableRecord
  2
CONTINUOUS
 70
     0
  3
Solid line
 72
    65
 73
     0
 40
0.0
  0
ENDTAB
  0
TABLE
  2
LAYER
  5
2
330
0
100
AcDbSymbolTable
 70
     3
  0
LAYER
  5
5C
330
2
100
AcDbSymbolTableRecord
100
AcDbLayerTableRecord
  2
0
 70
     0
 62
     7
  6
CONTINUOUS
  0
LAYER
  5
7E
330
2
100
AcDbSymbolTableRecord
100
AcDbLayerTableRecord
  2
3D-CLNG-SUSP
 70
     0
 62
     5
  6
CONTINUOUS
  0
LAYER
  5
AF
330
2
100
AcDbSymbolTableRecord
100
AcDbLayerTableRecord
  2
3D-E-LITE-EQPM
 70
     0
 62
     4
  6
CONTINUOUS
  0
ENDTAB
  0
TABLE
  2
STYLE
  5
3
330
0
100
AcDbSymbolTable
 70
     2
  0
STYLE
  5
5D
330
3
100
AcDbSymbolTableRecord
100
AcDbTextStyleTableRecord
  2
STANDARD
 70
     0
 40
0.0
 41
1.0
 50
0.0
 71
     0
 42
0.2
  3
txt
  4

  0
STYLE
  5
62
330
3
100
AcDbSymbolTableRecord
100
AcDbTextStyleTableRecord
  2
ANNOTATIVE
 70
     0
 40
0.0
 41
1.0
 50
0.0
 71
     0
 42
0.2
  3
txt
  4

1001
ACADANNOTATIVE
1000
AnnotativeData
1002
{
1070
     1
1070
     1
1002
}
  0
ENDTAB
  0
TABLE
  2
VIEW
  5
6
330
0
100
AcDbSymbolTable
 70
     1
  0
VIEW
  5
444
102
{ACAD_XDICTIONARY
360
464
102
}
330
6
100
AcDbSymbolTableRecord
100
AcDbViewTableRecord
  2
_3D_
 70
     0
 40
2400.0
 10
0.0
 20
0.0
 41
2400.0
 11
61.14113767648358
 21
-61.14113767648358
 31
61.14113767648358
 12
-0.6289114749701986
 22
0.9051121939098506
 32
0.000000000000024
 42
50.0
 43
0.0
 44
0.0
 50
0.0
 71
     0
  0
ENDTAB
  0
TABLE
  2
UCS
  5
7
330
0
100
AcDbSymbolTable
 70
     0
  0
ENDTAB
  0
TABLE
  2
APPID
  5
9
330
0
100
AcDbSymbolTable
 70
     4
  0
APPID
  5
5E
330
9
100
AcDbSymbolTableRecord
100
AcDbRegAppTableRecord
  2
ACAD
 70
     0
  0
APPID
  5
66
330
9
100
AcDbSymbolTableRecord
100
AcDbRegAppTableRecord
  2
ACADANNOTATIVE
 70
     0
  0
APPID
  5
70
330
9
100
AcDbSymbolTableRecord
100
AcDbRegAppTableRecord
  2
ACAD_MLEADERVER
 70
     0
  0
APPID
  5
7D
330
9
100
AcDbSymbolTableRecord
100
AcDbRegAppTableRecord
  2
REVIT
 70
     0
  0
ENDTAB
  0
TABLE
  2
DIMSTYLE
  5
A
330
0
100
AcDbSymbolTable
 70
     2
  0
DIMSTYLE
105
60
330
A
100
AcDbSymbolTableRecord
100
AcDbDimStyleTableRecord
  2
STANDARD
 70
     0
  3

  4

  5

  6

  7

 40
1.0
 41
0.18
 42
0.0625
 43
0.38
 44
0.18
 45
0.0
 46
0.0
 47
0.0
 48
0.0
140
0.18
141
0.09
142
0.0
143
25.4
144
1.0
145
0.0
146
1.0
147
0.09
 71
     0
 72
     0
 73
     1
 74
     1
 75
     0
 76
     0
 77
     0
 78
     0
170
     0
171
     2
172
     0
173
     0
174
     0
175
     0
176
     0
177
     0
178
     0
270
     2
271
     4
272
     4
273
     2
274
     2
340
5D
275
     0
280
     0
281
     0
282
     0
283
     1
284
     0
285
     0
286
     0
287
     3
288
     0
  0
DIMSTYLE
105
61
330
A
100
AcDbSymbolTableRecord
100
AcDbDimStyleTableRecord
  2
ANNOTATIVE
 70
     0
  3

  4

  5

  6

  7

 40
1.0
 41
0.18
 42
0.0625
 43
0.38
 44
0.18
 45
0.0
 46
0.0
 47
0.0
 48
0.0
140
0.18
141
0.09
142
0.0
143
25.4
144
1.0
145
0.0
146
1.0
147
0.09
 71
     0
 72
     0
 73
     1
 74
     1
 75
     0
 76
     0
 77
     0
 78
     0
170
     0
171
     2
172
     0
173
     0
174
     0
175
     0
176
     0
177
     0
178
     0
270
     2
271
     4
272
     4
273
     2
274
     2
340
5D
275
     0
280
     0
281
     0
282
     0
283
     1
284
     0
285
     0
286
     0
287
     3
288
     0
1001
ACADANNOTATIVE
1000
AnnotativeData
1002
{
1070
     1
1070
     1
1002
}
  0
ENDTAB
  0
TABLE
  2
BLOCK_RECORD
  5
1
330
0
100
AcDbSymbolTable
 70
     1
  0
BLOCK_RECORD
  5
75
330
1
100
AcDbSymbolTableRecord
100
AcDbBlockTableRecord
  2
*MODEL_SPACE
  0
BLOCK_RECORD
  5
71
330
1
100
AcDbSymbolTableRecord
100
AcDbBlockTableRecord
  2
*PAPER_SPACE
  0
ENDTAB
  0
ENDSEC
  0
SECTION
  2
BLOCKS
  0
BLOCK
  5
76
330
75
100
AcDbEntity
  8
0
100
AcDbBlockBegin
  2
*MODEL_SPACE
 70
     0
 10
0.0
 20
0.0
 30
0.0
  3
*MODEL_SPACE
  1

  0
ENDBLK
  5
77
330
75
100
AcDbEntity
  8
0
100
AcDbBlockEnd
  0
BLOCK
  5
72
330
71
100
AcDbEntity
 67
     1
  8
0
100
AcDbBlockBegin
  2
*PAPER_SPACE
 70
     0
 10
0.0
 20
0.0
 30
0.0
  3
*PAPER_SPACE
  1

  0
ENDBLK
  5
73
330
71
100
AcDbEntity
 67
     1
  8
0
100
AcDbBlockEnd
  0
ENDSEC
  0
SECTION
  2
ENTITIES
  0
POLYLINE
  5
7F
330
75
100
AcDbEntity
  8
3D-CLNG-SUSP
100
AcDbPolyFaceMesh
 66
     1
 10
0.0
 20
0.0
 30
0.0
 70
    64
 71
    24
 72
    20
1001
REVIT
1002
{
1070
     1
1000
1652
1002
}
1002
{
1070
     5
1000
1651
1002
}
1002
{
1070
     4
1000
908
1002
}
1002
{
1070
     2
1000
-2000038
1002
}
  0
VERTEX
  5
80
330
7F
100
AcDbEntity
  8
3D-CLNG-SUSP
100
AcDbVertex
100
AcDbPolyFaceMeshVertex
 10
59.37108993530273
 20
60.90511322021484
 30
0.0000000000000271
 70
   192
  0
VERTEX
  5
81
330
7F
100
AcDbEntity
  8
3D-CLNG-SUSP
100
AcDbVertex
100
AcDbPolyFaceMeshVertex
 10
-60.62891006469726
 20
60.90511322021484
 30
0.0000000000000271
 70
   192
  0
VERTEX
  5
82
330
7F
100
AcDbEntity
  8
3D-CLNG-SUSP
100
AcDbVertex
100
AcDbPolyFaceMeshVertex
 10
-60.62891006469726
 20
-59.09488677978515
 30
0.0000000000000271
 70
   192
  0
VERTEX
  5
83
330
7F
100
AcDbEntity
  8
3D-CLNG-SUSP
100
AcDbVertex
100
AcDbPolyFaceMeshVertex
 10
59.37108993530273
 20
-59.09488677978515
 30
0.0000000000000271
 70
   192
  0
VERTEX
  5
84
330
7F
100
AcDbEntity
  8
3D-CLNG-SUSP
100
AcDbVertex
100
AcDbPolyFaceMeshVertex
 10
4.371088385581969
 20
0.9051122367382048
 30
0.0000000000000271
 70
   192
  0
VERTEX
  5
85
330
7F
100
AcDbEntity
  8
3D-CLNG-SUSP
100
AcDbVertex
100
AcDbPolyFaceMeshVertex
 10
4.126371145248412
 20
-0.6399727910757064
 30
0.0000000000000271
 70
   192
  0
VERTEX
  5
86
330
7F
100
AcDbEntity
  8
3D-CLNG-SUSP
100
AcDbVertex
100
AcDbPolyFaceMeshVertex
 10
3.416173338890075
 20
-2.033814132213592
 30
0.0000000000000271
 70
   192
  0
VERTEX
  5
87
330
7F
100
AcDbEntity
  8
3D-CLNG-SUSP
100
AcDbVertex
100
AcDbPolyFaceMeshVertex
 10
2.31001478433609
 20
-3.139972686767578
 30
0.0000000000000271
 70
   192
  0
VERTEX
  5
88
330
7F
100
AcDbEntity
  8
3D-CLNG-SUSP
100
AcDbVertex
100
AcDbPolyFaceMeshVertex
 10
0.9161734879016875
 20
-3.850170493125915
 30
0.0000000000000271
 70
   192
  0
VERTEX
  5
89
330
7F
100
AcDbEntity
  8
3D-CLNG-SUSP
100
AcDbVertex
100
AcDbPolyFaceMeshVertex
 10
-0.6289114952087401
 20
-4.094887733459472
 30
0.0000000000000271
 70
   192
  0
VERTEX
  5
8A
330
7F
100
AcDbEntity
  8
3D-CLNG-SUSP
100
AcDbVertex
100
AcDbPolyFaceMeshVertex
 10
-2.1739963889122
 20
-3.850170493125915
 30
0.0000000000000271
 70
   192
  0
VERTEX
  5
8B
330
7F
100
AcDbEntity
  8
3D-CLNG-SUSP
100
AcDbVertex
100
AcDbPolyFaceMeshVertex
 10
-3.567837595939636
 20
-3.139972686767578
 30
0.0000000000000271
 70
   192
  0
VERTEX
  5
8C
330
7F
100
AcDbEntity
  8
3D-CLNG-SUSP
100
AcDbVertex
100
AcDbPolyFaceMeshVertex
 10
-4.673996329307555
 20
-2.033814132213592
 30
0.0000000000000271
 70
   192
  0
VERTEX
  5
8D
330
7F
100
AcDbEntity
  8
3D-CLNG-SUSP
100
AcDbVertex
100
AcDbPolyFaceMeshVertex
 10
-5.384194135665893
 20
-0.6399727910757064
 30
0.0000000000000271
 70
   192
  0
VERTEX
  5
8E
330
7F
100
AcDbEntity
  8
3D-CLNG-SUSP
100
AcDbVertex
100
AcDbPolyFaceMeshVertex
 10
-5.62891137599945
 20
0.9051122367382048
 30
0.0000000000000271
 70
   192
  0
VERTEX
  5
8F
330
7F
100
AcDbEntity
  8
3D-CLNG-SUSP
100
AcDbVertex
100
AcDbPolyFaceMeshVertex
 10
-5.384194135665893
 20
2.450197219848632
 30
0.0000000000000271
 70
   192
  0
VERTEX
  5
90
330
7F
100
AcDbEntity
  8
3D-CLNG-SUSP
100
AcDbVertex
100
AcDbPolyFaceMeshVertex
 10
-4.673996329307555
 20
3.844038605690002
 30
0.0000000000000271
 70
   192
  0
VERTEX
  5
91
330
7F
100
AcDbEntity
  8
3D-CLNG-SUSP
100
AcDbVertex
100
AcDbPolyFaceMeshVertex
 10
-3.567837595939636
 20
4.950197339057921
 30
0.0000000000000271
 70
   192
  0
VERTEX
  5
92
330
7F
100
AcDbEntity
  8
3D-CLNG-SUSP
100
AcDbVertex
100
AcDbPolyFaceMeshVertex
 10
-2.1739963889122
 20
5.66039478778839
 30
0.0000000000000271
 70
   192
  0
VERTEX
  5
93
330
7F
100
AcDbEntity
  8
3D-CLNG-SUSP
100
AcDbVertex
100
AcDbPolyFaceMeshVertex
 10
-0.6289114952087401
 20
5.905112028121947
 30
0.0000000000000271
 70
   192
  0
VERTEX
  5
94
330
7F
100
AcDbEntity
  8
3D-CLNG-SUSP
100
AcDbVertex
100
AcDbPolyFaceMeshVertex
 10
0.9161734879016875
 20
5.66039478778839
 30
0.0000000000000271
 70
   192
  0
VERTEX
  5
95
330
7F
100
AcDbEntity
  8
3D-CLNG-SUSP
100
AcDbVertex
100
AcDbPolyFaceMeshVertex
 10
2.31001478433609
 20
4.950197339057921
 30
0.0000000000000271
 70
   192
  0
VERTEX
  5
96
330
7F
100
AcDbEntity
  8
3D-CLNG-SUSP
100
AcDbVertex
100
AcDbPolyFaceMeshVertex
 10
3.416173338890075
 20
3.844038605690002
 30
0.0000000000000271
 70
   192
  0
VERTEX
  5
97
330
7F
100
AcDbEntity
  8
3D-CLNG-SUSP
100
AcDbVertex
100
AcDbPolyFaceMeshVertex
 10
4.126371145248412
 20
2.450197219848632
 30
0.0000000000000271
 70
   192
  0
VERTEX
  5
98
330
7F
100
AcDbEntity
  8
3D-CLNG-SUSP
100
AcDbFaceRecord
 10
0.0
 20
0.0
 30
0.0
 70
   128
 71
    -3
 72
    13
 73
   -14
  0
VERTEX
  5
99
330
7F
100
AcDbEntity
  8
3D-CLNG-SUSP
100
AcDbFaceRecord
 10
0.0
 20
0.0
 30
0.0
 70
   128
 71
   -13
 72
    -3
 73
    12
  0
VERTEX
  5
9A
330
7F
100
AcDbEntity
  8
3D-CLNG-SUSP
100
AcDbFaceRecord
 10
0.0
 20
0.0
 30
0.0
 70
   128
 71
    -3
 72
    14
 73
   -15
  0
VERTEX
  5
9B
330
7F
100
AcDbEntity
  8
3D-CLNG-SUSP
100
AcDbFaceRecord
 10
0.0
 20
0.0
 30
0.0
 70
   128
 71
    11
 72
   -12
 73
    -3
  0
VERTEX
  5
9C
330
7F
100
AcDbEntity
  8
3D-CLNG-SUSP
100
AcDbFaceRecord
 10
0.0
 20
0.0
 30
0.0
 70
   128
 71
    10
 72
   -11
 73
     3
 74
    -4
  0
VERTEX
  5
9D
330
7F
100
AcDbEntity
  8
3D-CLNG-SUSP
100
AcDbFaceRecord
 10
0.0
 20
0.0
 30
0.0
 70
   128
 71
    15
 72
   -16
 73
     2
 74
    -3
  0
VERTEX
  5
9E
330
7F
100
AcDbEntity
  8
3D-CLNG-SUSP
100
AcDbFaceRecord
 10
0.0
 20
0.0
 30
0.0
 70
   128
 71
    -2
 72
    16
 73
   -17
  0
VERTEX
  5
9F
330
7F
100
AcDbEntity
  8
3D-CLNG-SUSP
100
AcDbFaceRecord
 10
0.0
 20
0.0
 30
0.0
 70
   128
 71
    18
 72
   -19
 73
    -2
  0
VERTEX
  5
A0
330
7F
100
AcDbEntity
  8
3D-CLNG-SUSP
100
AcDbFaceRecord
 10
0.0
 20
0.0
 30
0.0
 70
   128
 71
    17
 72
   -18
 73
    -2
  0
VERTEX
  5
A1
330
7F
100
AcDbEntity
  8
3D-CLNG-SUSP
100
AcDbFaceRecord
 10
0.0
 20
0.0
 30
0.0
 70
   128
 71
    -2
 72
    19
 73
   -20
  0
VERTEX
  5
A2
330
7F
100
AcDbEntity
  8
3D-CLNG-SUSP
100
AcDbFaceRecord
 10
0.0
 20
0.0
 30
0.0
 70
   128
 71
     8
 72
    -9
 73
    -4
  0
VERTEX
  5
A3
330
7F
100
AcDbEntity
  8
3D-CLNG-SUSP
100
AcDbFaceRecord
 10
0.0
 20
0.0
 30
0.0
 70
   128
 71
     7
 72
    -8
 73
    -4
  0
VERTEX
  5
A4
330
7F
100
AcDbEntity
  8
3D-CLNG-SUSP
100
AcDbFaceRecord
 10
0.0
 20
0.0
 30
0.0
 70
   128
 71
     5
 72
    -6
 73
     4
 74
    -1
  0
VERTEX
  5
A5
330
7F
100
AcDbEntity
  8
3D-CLNG-SUSP
100
AcDbFaceRecord
 10
0.0
 20
0.0
 30
0.0
 70
   128
 71
    -4
 72
     6
 73
    -7
  0
VERTEX
  5
A6
330
7F
100
AcDbEntity
  8
3D-CLNG-SUSP
100
AcDbFaceRecord
 10
0.0
 20
0.0
 30
0.0
 70
   128
 71
     9
 72
   -10
 73
    -4
  0
VERTEX
  5
A7
330
7F
100
AcDbEntity
  8
3D-CLNG-SUSP
100
AcDbFaceRecord
 10
0.0
 20
0.0
 30
0.0
 70
   128
 71
    21
 72
   -22
 73
    -1
  0
VERTEX
  5
A8
330
7F
100
AcDbEntity
  8
3D-CLNG-SUSP
100
AcDbFaceRecord
 10
0.0
 20
0.0
 30
0.0
 70
   128
 71
    20
 72
   -21
 73
     1
 74
    -2
  0
VERTEX
  5
A9
330
7F
100
AcDbEntity
  8
3D-CLNG-SUSP
100
AcDbFaceRecord
 10
0.0
 20
0.0
 30
0.0
 70
   128
 71
    23
 72
   -24
 73
    -1
  0
VERTEX
  5
AA
330
7F
100
AcDbEntity
  8
3D-CLNG-SUSP
100
AcDbFaceRecord
 10
0.0
 20
0.0
 30
0.0
 70
   128
 71
    -1
 72
    24
 73
    -5
  0
VERTEX
  5
AB
330
7F
100
AcDbEntity
  8
3D-CLNG-SUSP
100
AcDbFaceRecord
 10
0.0
 20
0.0
 30
0.0
 70
   128
 71
   -23
 72
    -1
 73
    22
  0
SEQEND
  5
AC
330
7F
100
AcDbEntity
  8
3D-CLNG-SUSP
  0
ARC
  5
AD
330
75
100
AcDbEntity
  8
3D-CLNG-SUSP
100
AcDbCircle
 10
-0.628911474970196
 20
0.905112193909848
 30
0.0000000000000271
 40
4.999999999999999
100
AcDbArc
 50
179.9999999999998
 51
0.0
1001
REVIT
1002
{
1070
     1
1000
2284
1002
}
  0
ARC
  5
AE
330
75
100
AcDbEntity
  8
3D-CLNG-SUSP
100
AcDbCircle
 10
-0.628911474970196
 20
0.905112193909848
 30
0.0000000000000271
 40
4.999999999999999
100
AcDbArc
 50
0.0
 51
179.9999999999998
1001
REVIT
1002
{
1070
     1
1000
2284
1002
}
  0
POLYLINE
  5
B0
330
75
100
AcDbEntity
  8
3D-E-LITE-EQPM
100
AcDbPolyFaceMesh
 66
     1
 10
0.0
 20
0.0
 30
0.0
 70
    64
 71
    24
 72
    11
1001
REVIT
1002
{
1070
     1
1000
2289
1002
}
1002
{
1070
     4
1000
1601
1002
}
1002
{
1070
     2
1000
-2001120
1002
}
  0
VERTEX
  5
B1
330
B0
100
AcDbEntity
  8
3D-E-LITE-EQPM
100
AcDbVertex
100
AcDbPolyFaceMeshVertex
 10
-6.628911495208739
 20
0.9051122367382048
 30
-0.1250000037252903
 70
   192
  0
VERTEX
  5
B2
330
B0
100
AcDbEntity
  8
3D-E-LITE-EQPM
100
AcDbVertex
100
AcDbPolyFaceMeshVertex
 10
-6.385869026184081
 20
-0.7852831184864043
 30
-0.1250000037252903
 70
   192
  0
VERTEX
  5
B3
330
B0
100
AcDbEntity
  8
3D-E-LITE-EQPM
100
AcDbVertex
100
AcDbPolyFaceMeshVertex
 10
-5.676432609558105
 20
-2.338732659816741
 30
-0.1250000037252903
 70
   192
  0
VERTEX
  5
B4
330
B0
100
AcDbEntity
  8
3D-E-LITE-EQPM
100
AcDbVertex
100
AcDbPolyFaceMeshVertex
 10
-4.558075904846191
 20
-3.629385352134704
 30
-0.1250000037252903
 70
   192
  0
VERTEX
  5
B5
330
B0
100
AcDbEntity
  8
3D-E-LITE-EQPM
100
AcDbVertex
100
AcDbPolyFaceMeshVertex
 10
-3.12140142917633
 20
-4.552679657936095
 30
-0.1250000037252903
 70
   192
  0
VERTEX
  5
B6
330
B0
100
AcDbEntity
  8
3D-E-LITE-EQPM
100
AcDbVertex
100
AcDbPolyFaceMeshVertex
 10
-1.482800513505935
 20
-5.033816456794738
 30
-0.1250000037252903
 70
   192
  0
VERTEX
  5
B7
330
B0
100
AcDbEntity
  8
3D-E-LITE-EQPM
100
AcDbVertex
100
AcDbPolyFaceMeshVertex
 10
0.224977545440197
 20
-5.033816456794738
 30
-0.1250000037252903
 70
   192
  0
VERTEX
  5
B8
330
B0
100
AcDbEntity
  8
3D-E-LITE-EQPM
100
AcDbVertex
100
AcDbPolyFaceMeshVertex
 10
1.863578617572784
 20
-4.552679657936095
 30
-0.1250000037252903
 70
   192
  0
VERTEX
  5
B9
330
B0
100
AcDbEntity
  8
3D-E-LITE-EQPM
100
AcDbVertex
100
AcDbPolyFaceMeshVertex
 10
3.30025291442871
 20
-3.629385352134704
 30
-0.1250000037252903
 70
   192
  0
VERTEX
  5
BA
330
B0
100
AcDbEntity
  8
3D-E-LITE-EQPM
100
AcDbVertex
100
AcDbPolyFaceMeshVertex
 10
4.418609619140624
 20
-2.338732659816741
 30
-0.1250000037252903
 70
   192
  0
VERTEX
  5
BB
330
B0
100
AcDbEntity
  8
3D-E-LITE-EQPM
100
AcDbVertex
100
AcDbPolyFaceMeshVertex
 10
5.128046393394469
 20
-0.7852831184864043
 30
-0.1250000037252903
 70
   192
  0
VERTEX
  5
BC
330
B0
100
AcDbEntity
  8
3D-E-LITE-EQPM
100
AcDbVertex
100
AcDbPolyFaceMeshVertex
 10
5.371088504791259
 20
0.9051122367382048
 30
-0.1250000037252903
 70
   192
  0
VERTEX
  5
BD
330
B0
100
AcDbEntity
  8
3D-E-LITE-EQPM
100
AcDbVertex
100
AcDbPolyFaceMeshVertex
 10
5.371088504791259
 20
0.9051122367382048
 30
0.0000000000000271
 70
   192
  0
VERTEX
  5
BE
330
B0
100
AcDbEntity
  8
3D-E-LITE-EQPM
100
AcDbVertex
100
AcDbPolyFaceMeshVertex
 10
5.128046393394469
 20
-0.7852831184864043
 30
0.0000000000000271
 70
   192
  0
VERTEX
  5
BF
330
B0
100
AcDbEntity
  8
3D-E-LITE-EQPM
100
AcDbVertex
100
AcDbPolyFaceMeshVertex
 10
4.418609619140624
 20
-2.338732659816741
 30
0.0000000000000271
 70
   192
  0
VERTEX
  5
C0
330
B0
100
AcDbEntity
  8
3D-E-LITE-EQPM
100
AcDbVertex
100
AcDbPolyFaceMeshVertex
 10
3.30025291442871
 20
-3.629385352134704
 30
0.0000000000000271
 70
   192
  0
VERTEX
  5
C1
330
B0
100
AcDbEntity
  8
3D-E-LITE-EQPM
100
AcDbVertex
100
AcDbPolyFaceMeshVertex
 10
1.863578617572784
 20
-4.552679657936095
 30
0.0000000000000271
 70
   192
  0
VERTEX
  5
C2
330
B0
100
AcDbEntity
  8
3D-E-LITE-EQPM
100
AcDbVertex
100
AcDbPolyFaceMeshVertex
 10
0.224977545440197
 20
-5.033816456794738
 30
0.0000000000000271
 70
   192
  0
VERTEX
  5
C3
330
B0
100
AcDbEntity
  8
3D-E-LITE-EQPM
100
AcDbVertex
100
AcDbPolyFaceMeshVertex
 10
-1.482800513505935
 20
-5.033816456794738
 30
0.0000000000000271
 70
   192
  0
VERTEX
  5
C4
330
B0
100
AcDbEntity
  8
3D-E-LITE-EQPM
100
AcDbVertex
100
AcDbPolyFaceMeshVertex
 10
-3.12140142917633
 20
-4.552679657936095
 30
0.0000000000000271
 70
   192
  0
VERTEX
  5
C5
330
B0
100
AcDbEntity
  8
3D-E-LITE-EQPM
100
AcDbVertex
100
AcDbPolyFaceMeshVertex
 10
-4.558075904846191
 20
-3.629385352134704
 30
0.0000000000000271
 70
   192
  0
VERTEX
  5
C6
330
B0
100
AcDbEntity
  8
3D-E-LITE-EQPM
100
AcDbVertex
100
AcDbPolyFaceMeshVertex
 10
-5.676432609558105
 20
-2.338732659816741
 30
0.0000000000000271
 70
   192
  0
VERTEX
  5
C7
330
B0
100
AcDbEntity
  8
3D-E-LITE-EQPM
100
AcDbVertex
100
AcDbPolyFaceMeshVertex
 10
-6.385869026184081
 20
-0.7852831184864043
 30
0.0000000000000271
 70
   192
  0
VERTEX
  5
C8
330
B0
100
AcDbEntity
  8
3D-E-LITE-EQPM
100
AcDbVertex
100
AcDbPolyFaceMeshVertex
 10
-6.628911495208739
 20
0.9051122367382048
 30
0.0000000000000271
 70
   192
  0
VERTEX
  5
C9
330
B0
100
AcDbEntity
  8
3D-E-LITE-EQPM
100
AcDbFaceRecord
 10
0.0
 20
0.0
 30
0.0
 70
   128
 71
    13
 72
   -14
 73
    11
 74
    12
  0
VERTEX
  5
CA
330
B0
100
AcDbEntity
  8
3D-E-LITE-EQPM
100
AcDbFaceRecord
 10
0.0
 20
0.0
 30
0.0
 70
   128
 71
    14
 72
   -15
 73
    10
 74
   -11
  0
VERTEX
  5
CB
330
B0
100
AcDbEntity
  8
3D-E-LITE-EQPM
100
AcDbFaceRecord
 10
0.0
 20
0.0
 30
0.0
 70
   128
 71
    16
 72
   -17
 73
     8
 74
    -9
  0
VERTEX
  5
CC
330
B0
100
AcDbEntity
  8
3D-E-LITE-EQPM
100
AcDbFaceRecord
 10
0.0
 20
0.0
 30
0.0
 70
   128
 71
    15
 72
   -16
 73
     9
 74
   -10
  0
VERTEX
  5
CD
330
B0
100
AcDbEntity
  8
3D-E-LITE-EQPM
100
AcDbFaceRecord
 10
0.0
 20
0.0
 30
0.0
 70
   128
 71
    17
 72
   -18
 73
     7
 74
    -8
  0
VERTEX
  5
CE
330
B0
100
AcDbEntity
  8
3D-E-LITE-EQPM
100
AcDbFaceRecord
 10
0.0
 20
0.0
 30
0.0
 70
   128
 71
     6
 72
    -7
 73
    18
 74
   -19
  0
VERTEX
  5
CF
330
B0
100
AcDbEntity
  8
3D-E-LITE-EQPM
100
AcDbFaceRecord
 10
0.0
 20
0.0
 30
0.0
 70
   128
 71
    19
 72
   -20
 73
     5
 74
    -6
  0
VERTEX
  5
D0
330
B0
100
AcDbEntity
  8
3D-E-LITE-EQPM
100
AcDbFaceRecord
 10
0.0
 20
0.0
 30
0.0
 70
   128
 71
    -5
 72
    20
 73
   -21
 74
     4
  0
VERTEX
  5
D1
330
B0
100
AcDbEntity
  8
3D-E-LITE-EQPM
100
AcDbFaceRecord
 10
0.0
 20
0.0
 30
0.0
 70
   128
 71
    -3
 72
    22
 73
   -23
 74
     2
  0
VERTEX
  5
D2
330
B0
100
AcDbEntity
  8
3D-E-LITE-EQPM
100
AcDbFaceRecord
 10
0.0
 20
0.0
 30
0.0
 70
   128
 71
    -4
 72
    21
 73
   -22
 74
     3
  0
VERTEX
  5
D3
330
B0
100
AcDbEntity
  8
3D-E-LITE-EQPM
100
AcDbFaceRecord
 10
0.0
 20
0.0
 30
0.0
 70
   128
 71
    -2
 72
    23
 73
    24
 74
     1
  0
SEQEND
  5
D4
330
B0
100
AcDbEntity
  8
3D-E-LITE-EQPM
  0
POLYLINE
  5
D5
330
75
100
AcDbEntity
  8
3D-E-LITE-EQPM
100
AcDbPolyFaceMesh
 66
     1
 10
0.0
 20
0.0
 30
0.0
 70
    64
 71
    24
 72
    21
1001
REVIT
1002
{
1070
     1
1000
2289
1002
}
1002
{
1070
     4
1000
1601
1002
}
1002
{
1070
     2
1000
-2001120
1002
}
  0
VERTEX
  5
D6
330
D5
100
AcDbEntity
  8
3D-E-LITE-EQPM
100
AcDbVertex
100
AcDbPolyFaceMeshVertex
 10
-6.402334213256835
 20
0.9051122367382048
 30
-0.2306545749306678
 70
   192
  0
VERTEX
  5
D7
330
D5
100
AcDbEntity
  8
3D-E-LITE-EQPM
100
AcDbVertex
100
AcDbPolyFaceMeshVertex
 10
-6.168470621109008
 20
-0.7214490473270415
 30
-0.2306545749306678
 70
   192
  0
VERTEX
  5
D8
330
D5
100
AcDbEntity
  8
3D-E-LITE-EQPM
100
AcDbVertex
100
AcDbPolyFaceMeshVertex
 10
-5.485824108123778
 20
-2.216235995292663
 30
-0.2306545749306678
 70
   192
  0
VERTEX
  5
D9
330
D5
100
AcDbEntity
  8
3D-E-LITE-EQPM
100
AcDbVertex
100
AcDbPolyFaceMeshVertex
 10
-4.40969967842102
 20
-3.458149909973144
 30
-0.2306545749306678
 70
   192
  0
VERTEX
  5
DA
330
D5
100
AcDbEntity
  8
3D-E-LITE-EQPM
100
AcDbVertex
100
AcDbPolyFaceMeshVertex
 10
-3.027278065681457
 20
-4.346578001976012
 30
-0.2306545749306678
 70
   192
  0
VERTEX
  5
DB
330
D5
100
AcDbEntity
  8
3D-E-LITE-EQPM
100
AcDbVertex
100
AcDbPolyFaceMeshVertex
 10
-1.450555264949798
 20
-4.809545874595641
 30
-0.2306545749306678
 70
   192
  0
VERTEX
  5
DC
330
D5
100
AcDbEntity
  8
3D-E-LITE-EQPM
100
AcDbVertex
100
AcDbPolyFaceMeshVertex
 10
0.1927322968840599
 20
-4.809545874595641
 30
-0.2306545749306678
 70
   192
  0
VERTEX
  5
DD
330
D5
100
AcDbEntity
  8
3D-E-LITE-EQPM
100
AcDbVertex
100
AcDbPolyFaceMeshVertex
 10
1.769455075263977
 20
-4.346578001976012
 30
-0.2306545749306678
 70
   192
  0
VERTEX
  5
DE
330
D5
100
AcDbEntity
  8
3D-E-LITE-EQPM
100
AcDbVertex
100
AcDbPolyFaceMeshVertex
 10
3.15187668800354
 20
-3.458149909973144
 30
-0.2306545749306678
 70
   192
  0
VERTEX
  5
DF
330
D5
100
AcDbEntity
  8
3D-E-LITE-EQPM
100
AcDbVertex
100
AcDbPolyFaceMeshVertex
 10
4.228001117706298
 20
-2.216235995292663
 30
-0.2306545749306678
 70
   192
  0
VERTEX
  5
E0
330
D5
100
AcDbEntity
  8
3D-E-LITE-EQPM
100
AcDbVertex
100
AcDbPolyFaceMeshVertex
 10
4.910647273063659
 20
-0.7214490473270415
 30
-0.2306545749306678
 70
   192
  0
VERTEX
  5
E1
330
D5
100
AcDbEntity
  8
3D-E-LITE-EQPM
100
AcDbVertex
100
AcDbPolyFaceMeshVertex
 10
5.144511580467223
 20
0.9051122367382048
 30
-0.2306545749306678
 70
   192
  0
VERTEX
  5
E2
330
D5
100
AcDbEntity
  8
3D-E-LITE-EQPM
100
AcDbVertex
100
AcDbPolyFaceMeshVertex
 10
5.371088504791259
 20
0.9051122367382048
 30
-0.1250000037252903
 70
   192
  0
VERTEX
  5
E3
330
D5
100
AcDbEntity
  8
3D-E-LITE-EQPM
100
AcDbVertex
100
AcDbPolyFaceMeshVertex
 10
5.128046393394469
 20
-0.7852831184864043
 30
-0.1250000037252903
 70
   192
  0
VERTEX
  5
E4
330
D5
100
AcDbEntity
  8
3D-E-LITE-EQPM
100
AcDbVertex
100
AcDbPolyFaceMeshVertex
 10
4.418609619140624
 20
-2.338732659816741
 30
-0.1250000037252903
 70
   192
  0
VERTEX
  5
E5
330
D5
100
AcDbEntity
  8
3D-E-LITE-EQPM
100
AcDbVertex
100
AcDbPolyFaceMeshVertex
 10
3.30025291442871
 20
-3.629385352134704
 30
-0.1250000037252903
 70
   192
  0
VERTEX
  5
E6
330
D5
100
AcDbEntity
  8
3D-E-LITE-EQPM
100
AcDbVertex
100
AcDbPolyFaceMeshVertex
 10
1.863578617572784
 20
-4.552679657936095
 30
-0.1250000037252903
 70
   192
  0
VERTEX
  5
E7
330
D5
100
AcDbEntity
  8
3D-E-LITE-EQPM
100
AcDbVertex
100
AcDbPolyFaceMeshVertex
 10
0.224977545440197
 20
-5.033816456794738
 30
-0.1250000037252903
 70
   192
  0
VERTEX
  5
E8
330
D5
100
AcDbEntity
  8
3D-E-LITE-EQPM
100
AcDbVertex
100
AcDbPolyFaceMeshVertex
 10
-1.482800513505935
 20
-5.033816456794738
 30
-0.1250000037252903
 70
   192
  0
VERTEX
  5
E9
330
D5
100
AcDbEntity
  8
3D-E-LITE-EQPM
100
AcDbVertex
100
AcDbPolyFaceMeshVertex
 10
-3.12140142917633
 20
-4.552679657936095
 30
-0.1250000037252903
 70
   192
  0
VERTEX
  5
EA
330
D5
100
AcDbEntity
  8
3D-E-LITE-EQPM
100
AcDbVertex
100
AcDbPolyFaceMeshVertex
 10
-4.558075904846191
 20
-3.629385352134704
 30
-0.1250000037252903
 70
   192
  0
VERTEX
  5
EB
330
D5
100
AcDbEntity
  8
3D-E-LITE-EQPM
100
AcDbVertex
100
AcDbPolyFaceMeshVertex
 10
-5.676432609558105
 20
-2.338732659816741
 30
-0.1250000037252903
 70
   192
  0
VERTEX
  5
EC
330
D5
100
AcDbEntity
  8
3D-E-LITE-EQPM
100
AcDbVertex
100
AcDbPolyFaceMeshVertex
 10
-6.385869026184081
 20
-0.7852831184864043
 30
-0.1250000037252903
 70
   192
  0
VERTEX
  5
ED
330
D5
100
AcDbEntity
  8
3D-E-LITE-EQPM
100
AcDbVertex
100
AcDbPolyFaceMeshVertex
 10
-6.628911495208739
 20
0.9051122367382048
 30
-0.1250000037252903
 70
   192
  0
VERTEX
  5
EE
330
D5
100
AcDbEntity
  8
3D-E-LITE-EQPM
100
AcDbFaceRecord
 10
0.0
 20
0.0
 30
0.0
 70
   128
 71
   -14
 72
   -11
 73
    13
  0
VERTEX
  5
EF
330
D5
100
AcDbEntity
  8
3D-E-LITE-EQPM
100
AcDbFaceRecord
 10
0.0
 20
0.0
 30
0.0
 70
   128
 71
   -15
 72
   -10
 73
    14
  0
VERTEX
  5
F0
330
D5
100
AcDbEntity
  8
3D-E-LITE-EQPM
100
AcDbFaceRecord
 10
0.0
 20
0.0
 30
0.0
 70
   128
 71
    -8
 72
    16
 73
   -17
  0
VERTEX
  5
F1
330
D5
100
AcDbEntity
  8
3D-E-LITE-EQPM
100
AcDbFaceRecord
 10
0.0
 20
0.0
 30
0.0
 70
   128
 71
    15
 72
   -16
 73
    -9
  0
VERTEX
  5
F2
330
D5
100
AcDbEntity
  8
3D-E-LITE-EQPM
100
AcDbFaceRecord
 10
0.0
 20
0.0
 30
0.0
 70
   128
 71
    -7
 72
    17
 73
   -18
  0
VERTEX
  5
F3
330
D5
100
AcDbEntity
  8
3D-E-LITE-EQPM
100
AcDbFaceRecord
 10
0.0
 20
0.0
 30
0.0
 70
   128
 71
   -14
 72
    10
 73
   -11
  0
VERTEX
  5
F4
330
D5
100
AcDbEntity
  8
3D-E-LITE-EQPM
100
AcDbFaceRecord
 10
0.0
 20
0.0
 30
0.0
 70
   128
 71
    11
 72
    12
 73
   -13
  0
VERTEX
  5
F5
330
D5
100
AcDbEntity
  8
3D-E-LITE-EQPM
100
AcDbFaceRecord
 10
0.0
 20
0.0
 30
0.0
 70
   128
 71
   -16
 72
     8
 73
    -9
  0
VERTEX
  5
F6
330
D5
100
AcDbEntity
  8
3D-E-LITE-EQPM
100
AcDbFaceRecord
 10
0.0
 20
0.0
 30
0.0
 70
   128
 71
     9
 72
   -10
 73
   -15
  0
VERTEX
  5
F7
330
D5
100
AcDbEntity
  8
3D-E-LITE-EQPM
100
AcDbFaceRecord
 10
0.0
 20
0.0
 30
0.0
 70
   128
 71
   -17
 72
     7
 73
    -8
  0
VERTEX
  5
F8
330
D5
100
AcDbEntity
  8
3D-E-LITE-EQPM
100
AcDbFaceRecord
 10
0.0
 20
0.0
 30
0.0
 70
   128
 71
     6
 72
    -7
 73
    18
 74
   -19
  0
VERTEX
  5
F9
330
D5
100
AcDbEntity
  8
3D-E-LITE-EQPM
100
AcDbFaceRecord
 10
0.0
 20
0.0
 30
0.0
 70
   128
 71
    -5
 72
    19
 73
   -20
  0
VERTEX
  5
FA
330
D5
100
AcDbEntity
  8
3D-E-LITE-EQPM
100
AcDbFaceRecord
 10
0.0
 20
0.0
 30
0.0
 70
   128
 71
    -5
 72
    20
 73
   -21
  0
VERTEX
  5
FB
330
D5
100
AcDbEntity
  8
3D-E-LITE-EQPM
100
AcDbFaceRecord
 10
0.0
 20
0.0
 30
0.0
 70
   128
 71
    -3
 72
    22
 73
   -23
  0
VERTEX
  5
FC
330
D5
100
AcDbEntity
  8
3D-E-LITE-EQPM
100
AcDbFaceRecord
 10
0.0
 20
0.0
 30
0.0
 70
   128
 71
   -22
 72
    -4
 73
    21
  0
VERTEX
  5
FD
330
D5
100
AcDbEntity
  8
3D-E-LITE-EQPM
100
AcDbFaceRecord
 10
0.0
 20
0.0
 30
0.0
 70
   128
 71
    -2
 72
    23
 73
   -24
  0
VERTEX
  5
FE
330
D5
100
AcDbEntity
  8
3D-E-LITE-EQPM
100
AcDbFaceRecord
 10
0.0
 20
0.0
 30
0.0
 70
   128
 71
     5
 72
    -6
 73
   -19
  0
VERTEX
  5
FF
330
D5
100
AcDbEntity
  8
3D-E-LITE-EQPM
100
AcDbFaceRecord
 10
0.0
 20
0.0
 30
0.0
 70
   128
 71
     4
 72
    -5
 73
   -21
  0
VERTEX
  5
100
330
D5
100
AcDbEntity
  8
3D-E-LITE-EQPM
100
AcDbFaceRecord
 10
0.0
 20
0.0
 30
0.0
 70
   128
 71
   -23
 72
     2
 73
    -3
  0
VERTEX
  5
101
330
D5
100
AcDbEntity
  8
3D-E-LITE-EQPM
100
AcDbFaceRecord
 10
0.0
 20
0.0
 30
0.0
 70
   128
 71
     3
 72
    -4
 73
   -22
  0
VERTEX
  5
102
330
D5
100
AcDbEntity
  8
3D-E-LITE-EQPM
100
AcDbFaceRecord
 10
0.0
 20
0.0
 30
0.0
 70
   128
 71
     1
 72
    -2
 73
    24
  0
SEQEND
  5
103
330
D5
100
AcDbEntity
  8
3D-E-LITE-EQPM
  0
POLYLINE
  5
104
330
75
100
AcDbEntity
  8
3D-E-LITE-EQPM
100
AcDbPolyFaceMesh
 66
     1
 10
0.0
 20
0.0
 30
0.0
 70
    64
 71
    23
 72
    21
1001
REVIT
1002
{
1070
     1
1000
2289
1002
}
1002
{
1070
     4
1000
1601
1002
}
1002
{
1070
     2
1000
-2001120
1002
}
  0
VERTEX
  5
105
330
104
100
AcDbEntity
  8
3D-E-LITE-EQPM
100
AcDbVertex
100
AcDbPolyFaceMeshVertex
 10
-5.503646135330199
 20
0.9051122367382048
 30
0.0000000000000271
 70
   192
  0
VERTEX
  5
106
330
104
100
AcDbEntity
  8
3D-E-LITE-EQPM
100
AcDbVertex
100
AcDbPolyFaceMeshVertex
 10
-5.265059709548949
 20
-0.6012636870145797
 30
0.0000000000000271
 70
   192
  0
VERTEX
  5
107
330
104
100
AcDbEntity
  8
3D-E-LITE-EQPM
100
AcDbVertex
100
AcDbPolyFaceMeshVertex
 10
-4.572654604911803
 20
-1.96018499135971
 30
0.0000000000000271
 70
   192
  0
VERTEX
  5
108
330
104
100
AcDbEntity
  8
3D-E-LITE-EQPM
100
AcDbVertex
100
AcDbPolyFaceMeshVertex
 10
-3.494208812713623
 20
-3.038630962371826
 30
0.0000000000000271
 70
   192
  0
VERTEX
  5
109
330
104
100
AcDbEntity
  8
3D-E-LITE-EQPM
100
AcDbVertex
100
AcDbPolyFaceMeshVertex
 10
-2.135287284851074
 20
-3.731036067008972
 30
0.0000000000000271
 70
   192
  0
VERTEX
  5
10A
330
104
100
AcDbEntity
  8
3D-E-LITE-EQPM
100
AcDbVertex
100
AcDbPolyFaceMeshVertex
 10
-0.6289114952087401
 20
-3.969622492790222
 30
0.0000000000000271
 70
   192
  0
VERTEX
  5
10B
330
104
100
AcDbEntity
  8
3D-E-LITE-EQPM
100
AcDbVertex
100
AcDbPolyFaceMeshVertex
 10
0.8774643838405608
 20
-3.731036067008972
 30
0.0000000000000271
 70
   192
  0
VERTEX
  5
10C
330
104
100
AcDbEntity
  8
3D-E-LITE-EQPM
100
AcDbVertex
100
AcDbPolyFaceMeshVertex
 10
2.236385643482208
 20
-3.038630962371826
 30
0.0000000000000271
 70
   192
  0
VERTEX
  5
10D
330
104
100
AcDbEntity
  8
3D-E-LITE-EQPM
100
AcDbVertex
100
AcDbPolyFaceMeshVertex
 10
3.314831614494323
 20
-1.96018499135971
 30
0.0000000000000271
 70
   192
  0
VERTEX
  5
10E
330
104
100
AcDbEntity
  8
3D-E-LITE-EQPM
100
AcDbVertex
100
AcDbPolyFaceMeshVertex
 10
4.007236719131469
 20
-0.6012636870145797
 30
0.0000000000000271
 70
   192
  0
VERTEX
  5
10F
330
104
100
AcDbEntity
  8
3D-E-LITE-EQPM
100
AcDbVertex
100
AcDbPolyFaceMeshVertex
 10
4.245823144912719
 20
0.9051122367382048
 30
0.0000000000000271
 70
   192
  0
VERTEX
  5
110
330
104
100
AcDbEntity
  8
3D-E-LITE-EQPM
100
AcDbVertex
100
AcDbPolyFaceMeshVertex
 10
4.518979310989379
 20
0.9051122367382048
 30
-0.2306545749306678
 70
   192
  0
VERTEX
  5
111
330
104
100
AcDbEntity
  8
3D-E-LITE-EQPM
100
AcDbVertex
100
AcDbPolyFaceMeshVertex
 10
4.310453295707702
 20
-0.5452162027359008
 30
-0.2306545749306678
 70
   192
  0
VERTEX
  5
112
330
104
100
AcDbEntity
  8
3D-E-LITE-EQPM
100
AcDbVertex
100
AcDbPolyFaceMeshVertex
 10
3.701769590377807
 20
-1.878047525882721
 30
-0.2306545749306678
 70
   192
  0
VERTEX
  5
113
330
104
100
AcDbEntity
  8
3D-E-LITE-EQPM
100
AcDbVertex
100
AcDbPolyFaceMeshVertex
 10
2.742239892482757
 20
-2.985403954982757
 30
-0.2306545749306678
 70
   192
  0
VERTEX
  5
114
330
104
100
AcDbEntity
  8
3D-E-LITE-EQPM
100
AcDbVertex
100
AcDbPolyFaceMeshVertex
 10
1.5095996260643
 20
-3.777573823928833
 30
-0.2306545749306678
 70
   192
  0
VERTEX
  5
115
330
104
100
AcDbEntity
  8
3D-E-LITE-EQPM
100
AcDbVertex
100
AcDbPolyFaceMeshVertex
 10
0.1037097461521625
 20
-4.190380454063415
 30
-0.2306545749306678
 70
   192
  0
VERTEX
  5
116
330
104
100
AcDbEntity
  8
3D-E-LITE-EQPM
100
AcDbVertex
100
AcDbPolyFaceMeshVertex
 10
-1.361532658338547
 20
-4.190380454063415
 30
-0.2306545749306678
 70
   192
  0
VERTEX
  5
117
330
104
100
AcDbEntity
  8
3D-E-LITE-EQPM
100
AcDbVertex
100
AcDbPolyFaceMeshVertex
 10
-2.767422616481781
 20
-3.777573823928833
 30
-0.2306545749306678
 70
   192
  0
VERTEX
  5
118
330
104
100
AcDbEntity
  8
3D-E-LITE-EQPM
100
AcDbVertex
100
AcDbPolyFaceMeshVertex
 10
-4.000063061714171
 20
-2.985403954982757
 30
-0.2306545749306678
 70
   192
  0
VERTEX
  5
119
330
104
100
AcDbEntity
  8
3D-E-LITE-EQPM
100
AcDbVertex
100
AcDbPolyFaceMeshVertex
 10
-4.959592580795287
 20
-1.878047525882721
 30
-0.2306545749306678
 70
   192
  0
VERTEX
  5
11A
330
104
100
AcDbEntity
  8
3D-E-LITE-EQPM
100
AcDbVertex
100
AcDbPolyFaceMeshVertex
 10
-5.568276286125182
 20
-0.5452162027359008
 30
-0.2306545749306678
 70
   192
  0
VERTEX
  5
11B
330
104
100
AcDbEntity
  8
3D-E-LITE-EQPM
100
AcDbVertex
100
AcDbPolyFaceMeshVertex
 10
-5.776802301406859
 20
0.9051122367382048
 30
-0.2306545749306678
 70
   192
  0
VERTEX
  5
11C
330
104
100
AcDbEntity
  8
3D-E-LITE-EQPM
100
AcDbFaceRecord
 10
0.0
 20
0.0
 30
0.0
 70
   128
 71
    11
 72
    12
 73
   -13
  0
VERTEX
  5
11D
330
104
100
AcDbEntity
  8
3D-E-LITE-EQPM
100
AcDbFaceRecord
 10
0.0
 20
0.0
 30
0.0
 70
   128
 71
    -9
 72
    14
 73
   -15
  0
VERTEX
  5
11E
330
104
100
AcDbEntity
  8
3D-E-LITE-EQPM
100
AcDbFaceRecord
 10
0.0
 20
0.0
 30
0.0
 70
   128
 71
    13
 72
   -14
 73
   -10
  0
VERTEX
  5
11F
330
104
100
AcDbEntity
  8
3D-E-LITE-EQPM
100
AcDbFaceRecord
 10
0.0
 20
0.0
 30
0.0
 70
   128
 71
    15
 72
   -16
 73
    -8
  0
VERTEX
  5
120
330
104
100
AcDbEntity
  8
3D-E-LITE-EQPM
100
AcDbFaceRecord
 10
0.0
 20
0.0
 30
0.0
 70
   128
 71
   -14
 72
     9
 73
   -10
  0
VERTEX
  5
121
330
104
100
AcDbEntity
  8
3D-E-LITE-EQPM
100
AcDbFaceRecord
 10
0.0
 20
0.0
 30
0.0
 70
   128
 71
    10
 72
   -11
 73
   -13
  0
VERTEX
  5
122
330
104
100
AcDbEntity
  8
3D-E-LITE-EQPM
100
AcDbFaceRecord
 10
0.0
 20
0.0
 30
0.0
 70
   128
 71
   -16
 72
     7
 73
    -8
  0
VERTEX
  5
123
330
104
100
AcDbEntity
  8
3D-E-LITE-EQPM
100
AcDbFaceRecord
 10
0.0
 20
0.0
 30
0.0
 70
   128
 71
     8
 72
    -9
 73
   -15
  0
VERTEX
  5
124
330
104
100
AcDbEntity
  8
3D-E-LITE-EQPM
100
AcDbFaceRecord
 10
0.0
 20
0.0
 30
0.0
 70
   128
 71
    -7
 72
   -17
 73
     6
  0
VERTEX
  5
125
330
104
100
AcDbEntity
  8
3D-E-LITE-EQPM
100
AcDbFaceRecord
 10
0.0
 20
0.0
 30
0.0
 70
   128
 71
    16
 72
   -17
 73
    -7
  0
VERTEX
  5
126
330
104
100
AcDbEntity
  8
3D-E-LITE-EQPM
100
AcDbFaceRecord
 10
0.0
 20
0.0
 30
0.0
 70
   128
 71
    -5
 72
    18
 73
   -19
  0
VERTEX
  5
127
330
104
100
AcDbEntity
  8
3D-E-LITE-EQPM
100
AcDbFaceRecord
 10
0.0
 20
0.0
 30
0.0
 70
   128
 71
    -4
 72
    19
 73
   -20
  0
VERTEX
  5
128
330
104
100
AcDbEntity
  8
3D-E-LITE-EQPM
100
AcDbFaceRecord
 10
0.0
 20
0.0
 30
0.0
 70
   128
 71
    -2
 72
    21
 73
   -22
  0
VERTEX
  5
129
330
104
100
AcDbEntity
  8
3D-E-LITE-EQPM
100
AcDbFaceRecord
 10
0.0
 20
0.0
 30
0.0
 70
   128
 71
    -1
 72
    22
 73
    23
  0
VERTEX
  5
12A
330
104
100
AcDbEntity
  8
3D-E-LITE-EQPM
100
AcDbFaceRecord
 10
0.0
 20
0.0
 30
0.0
 70
   128
 71
    20
 72
   -21
 73
    -3
  0
VERTEX
  5
12B
330
104
100
AcDbEntity
  8
3D-E-LITE-EQPM
100
AcDbFaceRecord
 10
0.0
 20
0.0
 30
0.0
 70
   128
 71
   -18
 72
     5
 73
    -6
  0
VERTEX
  5
12C
330
104
100
AcDbEntity
  8
3D-E-LITE-EQPM
100
AcDbFaceRecord
 10
0.0
 20
0.0
 30
0.0
 70
   128
 71
    -5
 72
   -19
 73
     4
  0
VERTEX
  5
12D
330
104
100
AcDbEntity
  8
3D-E-LITE-EQPM
100
AcDbFaceRecord
 10
0.0
 20
0.0
 30
0.0
 70
   128
 71
   -21
 72
     2
 73
    -3
  0
VERTEX
  5
12E
330
104
100
AcDbEntity
  8
3D-E-LITE-EQPM
100
AcDbFaceRecord
 10
0.0
 20
0.0
 30
0.0
 70
   128
 71
    -2
 72
   -22
 73
     1
  0
VERTEX
  5
12F
330
104
100
AcDbEntity
  8
3D-E-LITE-EQPM
100
AcDbFaceRecord
 10
0.0
 20
0.0
 30
0.0
 70
   128
 71
    -4
 72
   -20
 73
     3
  0
VERTEX
  5
130
330
104
100
AcDbEntity
  8
3D-E-LITE-EQPM
100
AcDbFaceRecord
 10
0.0
 20
0.0
 30
0.0
 70
   128
 71
   -18
 72
    -6
 73
    17
  0
SEQEND
  5
131
330
104
100
AcDbEntity
  8
3D-E-LITE-EQPM
  0
POLYLINE
  5
132
330
75
100
AcDbEntity
  8
3D-E-LITE-EQPM
100
AcDbPolyFaceMesh
 66
     1
 10
0.0
 20
0.0
 30
0.0
 70
    64
 71
    22
 72
    10
1001
REVIT
1002
{
1070
     1
1000
2289
1002
}
1002
{
1070
     4
1000
1601
1002
}
1002
{
1070
     2
1000
-2001120
1002
}
  0
VERTEX
  5
133
330
132
100
AcDbEntity
  8
3D-E-LITE-EQPM
100
AcDbVertex
100
AcDbPolyFaceMeshVertex
 10
-5.503646135330199
 20
0.9051122367382048
 30
0.0000000000000271
 70
   192
  0
VERTEX
  5
134
330
132
100
AcDbEntity
  8
3D-E-LITE-EQPM
100
AcDbVertex
100
AcDbPolyFaceMeshVertex
 10
-5.265059709548949
 20
-0.6012636870145797
 30
0.0000000000000271
 70
   192
  0
VERTEX
  5
135
330
132
100
AcDbEntity
  8
3D-E-LITE-EQPM
100
AcDbVertex
100
AcDbPolyFaceMeshVertex
 10
-4.572654604911803
 20
-1.96018499135971
 30
0.0000000000000271
 70
   192
  0
VERTEX
  5
136
330
132
100
AcDbEntity
  8
3D-E-LITE-EQPM
100
AcDbVertex
100
AcDbPolyFaceMeshVertex
 10
-3.494208812713623
 20
-3.038630962371826
 30
0.0000000000000271
 70
   192
  0
VERTEX
  5
137
330
132
100
AcDbEntity
  8
3D-E-LITE-EQPM
100
AcDbVertex
100
AcDbPolyFaceMeshVertex
 10
-2.135287284851074
 20
-3.731036067008972
 30
0.0000000000000271
 70
   192
  0
VERTEX
  5
138
330
132
100
AcDbEntity
  8
3D-E-LITE-EQPM
100
AcDbVertex
100
AcDbPolyFaceMeshVertex
 10
-0.6289114952087401
 20
-3.969622492790222
 30
0.0000000000000271
 70
   192
  0
VERTEX
  5
139
330
132
100
AcDbEntity
  8
3D-E-LITE-EQPM
100
AcDbVertex
100
AcDbPolyFaceMeshVertex
 10
0.8774643838405608
 20
-3.731036067008972
 30
0.0000000000000271
 70
   192
  0
VERTEX
  5
13A
330
132
100
AcDbEntity
  8
3D-E-LITE-EQPM
100
AcDbVertex
100
AcDbPolyFaceMeshVertex
 10
2.236385643482208
 20
-3.038630962371826
 30
0.0000000000000271
 70
   192
  0
VERTEX
  5
13B
330
132
100
AcDbEntity
  8
3D-E-LITE-EQPM
100
AcDbVertex
100
AcDbPolyFaceMeshVertex
 10
3.314831614494323
 20
-1.96018499135971
 30
0.0000000000000271
 70
   192
  0
VERTEX
  5
13C
330
132
100
AcDbEntity
  8
3D-E-LITE-EQPM
100
AcDbVertex
100
AcDbPolyFaceMeshVertex
 10
4.007236719131469
 20
-0.6012636870145797
 30
0.0000000000000271
 70
   192
  0
VERTEX
  5
13D
330
132
100
AcDbEntity
  8
3D-E-LITE-EQPM
100
AcDbVertex
100
AcDbPolyFaceMeshVertex
 10
4.245823144912719
 20
0.9051122367382048
 30
0.0000000000000271
 70
   192
  0
VERTEX
  5
13E
330
132
100
AcDbEntity
  8
3D-E-LITE-EQPM
100
AcDbVertex
100
AcDbPolyFaceMeshVertex
 10
4.245823144912719
 20
0.9051122367382048
 30
0.2500000074505805
 70
   192
  0
VERTEX
  5
13F
330
132
100
AcDbEntity
  8
3D-E-LITE-EQPM
100
AcDbVertex
100
AcDbPolyFaceMeshVertex
 10
4.007236719131469
 20
-0.6012636870145797
 30
0.2500000074505805
 70
   192
  0
VERTEX
  5
140
330
132
100
AcDbEntity
  8
3D-E-LITE-EQPM
100
AcDbVertex
100
AcDbPolyFaceMeshVertex
 10
3.314831614494323
 20
-1.96018499135971
 30
0.2500000074505805
 70
   192
  0
VERTEX
  5
141
330
132
100
AcDbEntity
  8
3D-E-LITE-EQPM
100
AcDbVertex
100
AcDbPolyFaceMeshVertex
 10
2.236385643482208
 20
-3.038630962371826
 30
0.2500000074505805
 70
   192
  0
VERTEX
  5
142
330
132
100
AcDbEntity
  8
3D-E-LITE-EQPM
100
AcDbVertex
100
AcDbPolyFaceMeshVertex
 10
0.8774643838405608
 20
-3.731036067008972
 30
0.2500000074505805
 70
   192
  0
VERTEX
  5
143
330
132
100
AcDbEntity
  8
3D-E-LITE-EQPM
100
AcDbVertex
100
AcDbPolyFaceMeshVertex
 10
-0.6289114952087401
 20
-3.969622492790222
 30
0.2500000074505805
 70
   192
  0
VERTEX
  5
144
330
132
100
AcDbEntity
  8
3D-E-LITE-EQPM
100
AcDbVertex
100
AcDbPolyFaceMeshVertex
 10
-2.135287284851074
 20
-3.731036067008972
 30
0.2500000074505805
 70
   192
  0
VERTEX
  5
145
330
132
100
AcDbEntity
  8
3D-E-LITE-EQPM
100
AcDbVertex
100
AcDbPolyFaceMeshVertex
 10
-3.494208812713623
 20
-3.038630962371826
 30
0.2500000074505805
 70
   192
  0
VERTEX
  5
146
330
132
100
AcDbEntity
  8
3D-E-LITE-EQPM
100
AcDbVertex
100
AcDbPolyFaceMeshVertex
 10
-4.572654604911803
 20
-1.96018499135971
 30
0.2500000074505805
 70
   192
  0
VERTEX
  5
147
330
132
100
AcDbEntity
  8
3D-E-LITE-EQPM
100
AcDbVertex
100
AcDbPolyFaceMeshVertex
 10
-5.265059709548949
 20
-0.6012636870145797
 30
0.2500000074505805
 70
   192
  0
VERTEX
  5
148
330
132
100
AcDbEntity
  8
3D-E-LITE-EQPM
100
AcDbVertex
100
AcDbPolyFaceMeshVertex
 10
-5.503646135330199
 20
0.9051122367382048
 30
0.2500000074505805
 70
   192
  0
VERTEX
  5
149
330
132
100
AcDbEntity
  8
3D-E-LITE-EQPM
100
AcDbFaceRecord
 10
0.0
 20
0.0
 30
0.0
 70
   128
 71
    13
 72
    12
 73
    11
 74
   -10
  0
VERTEX
  5
14A
330
132
100
AcDbEntity
  8
3D-E-LITE-EQPM
100
AcDbFaceRecord
 10
0.0
 20
0.0
 30
0.0
 70
   128
 71
    15
 72
   -14
 73
     9
 74
    -8
  0
VERTEX
  5
14B
330
132
100
AcDbEntity
  8
3D-E-LITE-EQPM
100
AcDbFaceRecord
 10
0.0
 20
0.0
 30
0.0
 70
   128
 71
    14
 72
   -13
 73
    10
 74
    -9
  0
VERTEX
  5
14C
330
132
100
AcDbEntity
  8
3D-E-LITE-EQPM
100
AcDbFaceRecord
 10
0.0
 20
0.0
 30
0.0
 70
   128
 71
    16
 72
   -15
 73
     8
 74
    -7
  0
VERTEX
  5
14D
330
132
100
AcDbEntity
  8
3D-E-LITE-EQPM
100
AcDbFaceRecord
 10
0.0
 20
0.0
 30
0.0
 70
   128
 71
     7
 72
    -6
 73
    17
 74
   -16
  0
VERTEX
  5
14E
330
132
100
AcDbEntity
  8
3D-E-LITE-EQPM
100
AcDbFaceRecord
 10
0.0
 20
0.0
 30
0.0
 70
   128
 71
    19
 72
   -18
 73
     5
 74
    -4
  0
VERTEX
  5
14F
330
132
100
AcDbEntity
  8
3D-E-LITE-EQPM
100
AcDbFaceRecord
 10
0.0
 20
0.0
 30
0.0
 70
   128
 71
    -2
 72
    21
 73
   -20
 74
     3
  0
VERTEX
  5
150
330
132
100
AcDbEntity
  8
3D-E-LITE-EQPM
100
AcDbFaceRecord
 10
0.0
 20
0.0
 30
0.0
 70
   128
 71
     1
 72
    22
 73
   -21
 74
     2
  0
VERTEX
  5
151
330
132
100
AcDbEntity
  8
3D-E-LITE-EQPM
100
AcDbFaceRecord
 10
0.0
 20
0.0
 30
0.0
 70
   128
 71
    -3
 72
    20
 73
   -19
 74
     4
  0
VERTEX
  5
152
330
132
100
AcDbEntity
  8
3D-E-LITE-EQPM
100
AcDbFaceRecord
 10
0.0
 20
0.0
 30
0.0
 70
   128
 71
     6
 72
    -5
 73
    18
 74
   -17
  0
SEQEND
  5
153
330
132
100
AcDbEntity
  8
3D-E-LITE-EQPM
  0
POLYLINE
  5
154
330
75
100
AcDbEntity
  8
3D-E-LITE-EQPM
100
AcDbPolyFaceMesh
 66
     1
 10
0.0
 20
0.0
 30
0.0
 70
    64
 71
    22
 72
    10
1001
REVIT
1002
{
1070
     1
1000
2289
1002
}
1002
{
1070
     4
1000
1601
1002
}
1002
{
1070
     2
1000
-2001120
1002
}
  0
VERTEX
  5
155
330
154
100
AcDbEntity
  8
3D-E-LITE-EQPM
100
AcDbVertex
100
AcDbPolyFaceMeshVertex
 10
-5.62891137599945
 20
0.9051122367382048
 30
0.0000000000000271
 70
   192
  0
VERTEX
  5
156
330
154
100
AcDbEntity
  8
3D-E-LITE-EQPM
100
AcDbVertex
100
AcDbPolyFaceMeshVertex
 10
-5.384194135665893
 20
-0.6399727910757064
 30
0.0000000000000271
 70
   192
  0
VERTEX
  5
157
330
154
100
AcDbEntity
  8
3D-E-LITE-EQPM
100
AcDbVertex
100
AcDbPolyFaceMeshVertex
 10
-4.673996329307555
 20
-2.033814132213592
 30
0.0000000000000271
 70
   192
  0
VERTEX
  5
158
330
154
100
AcDbEntity
  8
3D-E-LITE-EQPM
100
AcDbVertex
100
AcDbPolyFaceMeshVertex
 10
-3.567837595939636
 20
-3.139972686767578
 30
0.0000000000000271
 70
   192
  0
VERTEX
  5
159
330
154
100
AcDbEntity
  8
3D-E-LITE-EQPM
100
AcDbVertex
100
AcDbPolyFaceMeshVertex
 10
-2.1739963889122
 20
-3.850170493125915
 30
0.0000000000000271
 70
   192
  0
VERTEX
  5
15A
330
154
100
AcDbEntity
  8
3D-E-LITE-EQPM
100
AcDbVertex
100
AcDbPolyFaceMeshVertex
 10
-0.6289114952087401
 20
-4.094887733459472
 30
0.0000000000000271
 70
   192
  0
VERTEX
  5
15B
330
154
100
AcDbEntity
  8
3D-E-LITE-EQPM
100
AcDbVertex
100
AcDbPolyFaceMeshVertex
 10
0.9161734879016875
 20
-3.850170493125915
 30
0.0000000000000271
 70
   192
  0
VERTEX
  5
15C
330
154
100
AcDbEntity
  8
3D-E-LITE-EQPM
100
AcDbVertex
100
AcDbPolyFaceMeshVertex
 10
2.31001478433609
 20
-3.139972686767578
 30
0.0000000000000271
 70
   192
  0
VERTEX
  5
15D
330
154
100
AcDbEntity
  8
3D-E-LITE-EQPM
100
AcDbVertex
100
AcDbPolyFaceMeshVertex
 10
3.416173338890075
 20
-2.033814132213592
 30
0.0000000000000271
 70
   192
  0
VERTEX
  5
15E
330
154
100
AcDbEntity
  8
3D-E-LITE-EQPM
100
AcDbVertex
100
AcDbPolyFaceMeshVertex
 10
4.126371145248412
 20
-0.6399727910757064
 30
0.0000000000000271
 70
   192
  0
VERTEX
  5
15F
330
154
100
AcDbEntity
  8
3D-E-LITE-EQPM
100
AcDbVertex
100
AcDbPolyFaceMeshVertex
 10
4.371088385581969
 20
0.9051122367382048
 30
0.0000000000000271
 70
   192
  0
VERTEX
  5
160
330
154
100
AcDbEntity
  8
3D-E-LITE-EQPM
100
AcDbVertex
100
AcDbPolyFaceMeshVertex
 10
4.371088385581969
 20
0.9051122367382048
 30
0.2500000074505805
 70
   192
  0
VERTEX
  5
161
330
154
100
AcDbEntity
  8
3D-E-LITE-EQPM
100
AcDbVertex
100
AcDbPolyFaceMeshVertex
 10
4.126371145248412
 20
-0.6399727910757064
 30
0.2500000074505805
 70
   192
  0
VERTEX
  5
162
330
154
100
AcDbEntity
  8
3D-E-LITE-EQPM
100
AcDbVertex
100
AcDbPolyFaceMeshVertex
 10
3.416173338890075
 20
-2.033814132213592
 30
0.2500000074505805
 70
   192
  0
VERTEX
  5
163
330
154
100
AcDbEntity
  8
3D-E-LITE-EQPM
100
AcDbVertex
100
AcDbPolyFaceMeshVertex
 10
2.31001478433609
 20
-3.139972686767578
 30
0.2500000074505805
 70
   192
  0
VERTEX
  5
164
330
154
100
AcDbEntity
  8
3D-E-LITE-EQPM
100
AcDbVertex
100
AcDbPolyFaceMeshVertex
 10
0.9161734879016875
 20
-3.850170493125915
 30
0.2500000074505805
 70
   192
  0
VERTEX
  5
165
330
154
100
AcDbEntity
  8
3D-E-LITE-EQPM
100
AcDbVertex
100
AcDbPolyFaceMeshVertex
 10
-0.6289114952087401
 20
-4.094887733459472
 30
0.2500000074505805
 70
   192
  0
VERTEX
  5
166
330
154
100
AcDbEntity
  8
3D-E-LITE-EQPM
100
AcDbVertex
100
AcDbPolyFaceMeshVertex
 10
-2.1739963889122
 20
-3.850170493125915
 30
0.2500000074505805
 70
   192
  0
VERTEX
  5
167
330
154
100
AcDbEntity
  8
3D-E-LITE-EQPM
100
AcDbVertex
100
AcDbPolyFaceMeshVertex
 10
-3.567837595939636
 20
-3.139972686767578
 30
0.2500000074505805
 70
   192
  0
VERTEX
  5
168
330
154
100
AcDbEntity
  8
3D-E-LITE-EQPM
100
AcDbVertex
100
AcDbPolyFaceMeshVertex
 10
-4.673996329307555
 20
-2.033814132213592
 30
0.2500000074505805
 70
   192
  0
VERTEX
  5
169
330
154
100
AcDbEntity
  8
3D-E-LITE-EQPM
100
AcDbVertex
100
AcDbPolyFaceMeshVertex
 10
-5.384194135665893
 20
-0.6399727910757064
 30
0.2500000074505805
 70
   192
  0
VERTEX
  5
16A
330
154
100
AcDbEntity
  8
3D-E-LITE-EQPM
100
AcDbVertex
100
AcDbPolyFaceMeshVertex
 10
-5.62891137599945
 20
0.9051122367382048
 30
0.2500000074505805
 70
   192
  0
VERTEX
  5
16B
330
154
100
AcDbEntity
  8
3D-E-LITE-EQPM
100
AcDbFaceRecord
 10
0.0
 20
0.0
 30
0.0
 70
   128
 71
    11
 72
    12
 73
   -13
 74
    10
  0
VERTEX
  5
16C
330
154
100
AcDbEntity
  8
3D-E-LITE-EQPM
100
AcDbFaceRecord
 10
0.0
 20
0.0
 30
0.0
 70
   128
 71
    -9
 72
    14
 73
   -15
 74
     8
  0
VERTEX
  5
16D
330
154
100
AcDbEntity
  8
3D-E-LITE-EQPM
100
AcDbFaceRecord
 10
0.0
 20
0.0
 30
0.0
 70
   128
 71
   -10
 72
    13
 73
   -14
 74
     9
  0
VERTEX
  5
16E
330
154
100
AcDbEntity
  8
3D-E-LITE-EQPM
100
AcDbFaceRecord
 10
0.0
 20
0.0
 30
0.0
 70
   128
 71
    -8
 72
    15
 73
   -16
 74
     7
  0
VERTEX
  5
16F
330
154
100
AcDbEntity
  8
3D-E-LITE-EQPM
100
AcDbFaceRecord
 10
0.0
 20
0.0
 30
0.0
 70
   128
 71
   -17
 72
     6
 73
    -7
 74
    16
  0
VERTEX
  5
170
330
154
100
AcDbEntity
  8
3D-E-LITE-EQPM
100
AcDbFaceRecord
 10
0.0
 20
0.0
 30
0.0
 70
   128
 71
    -5
 72
    18
 73
   -19
 74
     4
  0
VERTEX
  5
171
330
154
100
AcDbEntity
  8
3D-E-LITE-EQPM
100
AcDbFaceRecord
 10
0.0
 20
0.0
 30
0.0
 70
   128
 71
    20
 72
   -21
 73
     2
 74
    -3
  0
VERTEX
  5
172
330
154
100
AcDbEntity
  8
3D-E-LITE-EQPM
100
AcDbFaceRecord
 10
0.0
 20
0.0
 30
0.0
 70
   128
 71
    21
 72
    22
 73
     1
 74
    -2
  0
VERTEX
  5
173
330
154
100
AcDbEntity
  8
3D-E-LITE-EQPM
100
AcDbFaceRecord
 10
0.0
 20
0.0
 30
0.0
 70
   128
 71
    19
 72
   -20
 73
     3
 74
    -4
  0
VERTEX
  5
174
330
154
100
AcDbEntity
  8
3D-E-LITE-EQPM
100
AcDbFaceRecord
 10
0.0
 20
0.0
 30
0.0
 70
   128
 71
   -18
 72
     5
 73
    -6
 74
    17
  0
SEQEND
  5
175
330
154
100
AcDbEntity
  8
3D-E-LITE-EQPM
  0
POLYLINE
  5
176
330
75
100
AcDbEntity
  8
3D-E-LITE-EQPM
100
AcDbPolyFaceMesh
 66
     1
 10
0.0
 20
0.0
 30
0.0
 70
    64
 71
    24
 72
    11
1001
REVIT
1002
{
1070
     1
1000
2289
1002
}
1002
{
1070
     4
1000
1601
1002
}
1002
{
1070
     2
1000
-2001120
1002
}
  0
VERTEX
  5
177
330
176
100
AcDbEntity
  8
3D-E-LITE-EQPM
100
AcDbVertex
100
AcDbPolyFaceMeshVertex
 10
5.371088504791259
 20
0.9051122367382048
 30
-0.1250000037252903
 70
   192
  0
VERTEX
  5
178
330
176
100
AcDbEntity
  8
3D-E-LITE-EQPM
100
AcDbVertex
100
AcDbPolyFaceMeshVertex
 10
5.128046393394469
 20
2.595507502555847
 30
-0.1250000037252903
 70
   192
  0
VERTEX
  5
179
330
176
100
AcDbEntity
  8
3D-E-LITE-EQPM
100
AcDbVertex
100
AcDbPolyFaceMeshVertex
 10
4.418609619140624
 20
4.148957133293151
 30
-0.1250000037252903
 70
   192
  0
VERTEX
  5
17A
330
176
100
AcDbEntity
  8
3D-E-LITE-EQPM
100
AcDbVertex
100
AcDbPolyFaceMeshVertex
 10
3.30025291442871
 20
5.439609646797179
 30
-0.1250000037252903
 70
   192
  0
VERTEX
  5
17B
330
176
100
AcDbEntity
  8
3D-E-LITE-EQPM
100
AcDbVertex
100
AcDbPolyFaceMeshVertex
 10
1.863578617572784
 20
6.36290431022644
 30
-0.1250000037252903
 70
   192
  0
VERTEX
  5
17C
330
176
100
AcDbEntity
  8
3D-E-LITE-EQPM
100
AcDbVertex
100
AcDbPolyFaceMeshVertex
 10
0.224977545440197
 20
6.844041109085082
 30
-0.1250000037252903
 70
   192
  0
VERTEX
  5
17D
330
176
100
AcDbEntity
  8
3D-E-LITE-EQPM
100
AcDbVertex
100
AcDbPolyFaceMeshVertex
 10
-1.482800513505935
 20
6.844041109085082
 30
-0.1250000037252903
 70
   192
  0
VERTEX
  5
17E
330
176
100
AcDbEntity
  8
3D-E-LITE-EQPM
100
AcDbVertex
100
AcDbPolyFaceMeshVertex
 10
-3.12140142917633
 20
6.36290431022644
 30
-0.1250000037252903
 70
   192
  0
VERTEX
  5
17F
330
176
100
AcDbEntity
  8
3D-E-LITE-EQPM
100
AcDbVertex
100
AcDbPolyFaceMeshVertex
 10
-4.558075904846191
 20
5.439609646797179
 30
-0.1250000037252903
 70
   192
  0
VERTEX
  5
180
330
176
100
AcDbEntity
  8
3D-E-LITE-EQPM
100
AcDbVertex
100
AcDbPolyFaceMeshVertex
 10
-5.676432609558105
 20
4.148957133293151
 30
-0.1250000037252903
 70
   192
  0
VERTEX
  5
181
330
176
100
AcDbEntity
  8
3D-E-LITE-EQPM
100
AcDbVertex
100
AcDbPolyFaceMeshVertex
 10
-6.385869026184081
 20
2.595507502555847
 30
-0.1250000037252903
 70
   192
  0
VERTEX
  5
182
330
176
100
AcDbEntity
  8
3D-E-LITE-EQPM
100
AcDbVertex
100
AcDbPolyFaceMeshVertex
 10
-6.628911495208739
 20
0.9051122367382048
 30
-0.1250000037252903
 70
   192
  0
VERTEX
  5
183
330
176
100
AcDbEntity
  8
3D-E-LITE-EQPM
100
AcDbVertex
100
AcDbPolyFaceMeshVertex
 10
-6.628911495208739
 20
0.9051122367382048
 30
0.0000000000000271
 70
   192
  0
VERTEX
  5
184
330
176
100
AcDbEntity
  8
3D-E-LITE-EQPM
100
AcDbVertex
100
AcDbPolyFaceMeshVertex
 10
-6.385869026184081
 20
2.595507502555847
 30
0.0000000000000271
 70
   192
  0
VERTEX
  5
185
330
176
100
AcDbEntity
  8
3D-E-LITE-EQPM
100
AcDbVertex
100
AcDbPolyFaceMeshVertex
 10
-5.676432609558105
 20
4.148957133293151
 30
0.0000000000000271
 70
   192
  0
VERTEX
  5
186
330
176
100
AcDbEntity
  8
3D-E-LITE-EQPM
100
AcDbVertex
100
AcDbPolyFaceMeshVertex
 10
-4.558075904846191
 20
5.439609646797179
 30
0.0000000000000271
 70
   192
  0
VERTEX
  5
187
330
176
100
AcDbEntity
  8
3D-E-LITE-EQPM
100
AcDbVertex
100
AcDbPolyFaceMeshVertex
 10
-3.12140142917633
 20
6.36290431022644
 30
0.0000000000000271
 70
   192
  0
VERTEX
  5
188
330
176
100
AcDbEntity
  8
3D-E-LITE-EQPM
100
AcDbVertex
100
AcDbPolyFaceMeshVertex
 10
-1.482800513505935
 20
6.844041109085082
 30
0.0000000000000271
 70
   192
  0
VERTEX
  5
189
330
176
100
AcDbEntity
  8
3D-E-LITE-EQPM
100
AcDbVertex
100
AcDbPolyFaceMeshVertex
 10
0.224977545440197
 20
6.844041109085082
 30
0.0000000000000271
 70
   192
  0
VERTEX
  5
18A
330
176
100
AcDbEntity
  8
3D-E-LITE-EQPM
100
AcDbVertex
100
AcDbPolyFaceMeshVertex
 10
1.863578617572784
 20
6.36290431022644
 30
0.0000000000000271
 70
   192
  0
VERTEX
  5
18B
330
176
100
AcDbEntity
  8
3D-E-LITE-EQPM
100
AcDbVertex
100
AcDbPolyFaceMeshVertex
 10
3.30025291442871
 20
5.439609646797179
 30
0.0000000000000271
 70
   192
  0
VERTEX
  5
18C
330
176
100
AcDbEntity
  8
3D-E-LITE-EQPM
100
AcDbVertex
100
AcDbPolyFaceMeshVertex
 10
4.418609619140624
 20
4.148957133293151
 30
0.0000000000000271
 70
   192
  0
VERTEX
  5
18D
330
176
100
AcDbEntity
  8
3D-E-LITE-EQPM
100
AcDbVertex
100
AcDbPolyFaceMeshVertex
 10
5.128046393394469
 20
2.595507502555847
 30
0.0000000000000271
 70
   192
  0
VERTEX
  5
18E
330
176
100
AcDbEntity
  8
3D-E-LITE-EQPM
100
AcDbVertex
100
AcDbPolyFaceMeshVertex
 10
5.371088504791259
 20
0.9051122367382048
 30
0.0000000000000271
 70
   192
  0
VERTEX
  5
18F
330
176
100
AcDbEntity
  8
3D-E-LITE-EQPM
100
AcDbFaceRecord
 10
0.0
 20
0.0
 30
0.0
 70
   128
 71
    13
 72
   -14
 73
    11
 74
    12
  0
VERTEX
  5
190
330
176
100
AcDbEntity
  8
3D-E-LITE-EQPM
100
AcDbFaceRecord
 10
0.0
 20
0.0
 30
0.0
 70
   128
 71
    14
 72
   -15
 73
    10
 74
   -11
  0
VERTEX
  5
191
330
176
100
AcDbEntity
  8
3D-E-LITE-EQPM
100
AcDbFaceRecord
 10
0.0
 20
0.0
 30
0.0
 70
   128
 71
    16
 72
   -17
 73
     8
 74
    -9
  0
VERTEX
  5
192
330
176
100
AcDbEntity
  8
3D-E-LITE-EQPM
100
AcDbFaceRecord
 10
0.0
 20
0.0
 30
0.0
 70
   128
 71
    15
 72
   -16
 73
     9
 74
   -10
  0
VERTEX
  5
193
330
176
100
AcDbEntity
  8
3D-E-LITE-EQPM
100
AcDbFaceRecord
 10
0.0
 20
0.0
 30
0.0
 70
   128
 71
    17
 72
   -18
 73
     7
 74
    -8
  0
VERTEX
  5
194
330
176
100
AcDbEntity
  8
3D-E-LITE-EQPM
100
AcDbFaceRecord
 10
0.0
 20
0.0
 30
0.0
 70
   128
 71
     6
 72
    -7
 73
    18
 74
   -19
  0
VERTEX
  5
195
330
176
100
AcDbEntity
  8
3D-E-LITE-EQPM
100
AcDbFaceRecord
 10
0.0
 20
0.0
 30
0.0
 70
   128
 71
    19
 72
   -20
 73
     5
 74
    -6
  0
VERTEX
  5
196
330
176
100
AcDbEntity
  8
3D-E-LITE-EQPM
100
AcDbFaceRecord
 10
0.0
 20
0.0
 30
0.0
 70
   128
 71
    -5
 72
    20
 73
   -21
 74
     4
  0
VERTEX
  5
197
330
176
100
AcDbEntity
  8
3D-E-LITE-EQPM
100
AcDbFaceRecord
 10
0.0
 20
0.0
 30
0.0
 70
   128
 71
    -3
 72
    22
 73
   -23
 74
     2
  0
VERTEX
  5
198
330
176
100
AcDbEntity
  8
3D-E-LITE-EQPM
100
AcDbFaceRecord
 10
0.0
 20
0.0
 30
0.0
 70
   128
 71
    -4
 72
    21
 73
   -22
 74
     3
  0
VERTEX
  5
199
330
176
100
AcDbEntity
  8
3D-E-LITE-EQPM
100
AcDbFaceRecord
 10
0.0
 20
0.0
 30
0.0
 70
   128
 71
    -2
 72
    23
 73
    24
 74
     1
  0
SEQEND
  5
19A
330
176
100
AcDbEntity
  8
3D-E-LITE-EQPM
  0
POLYLINE
  5
19B
330
75
100
AcDbEntity
  8
3D-E-LITE-EQPM
100
AcDbPolyFaceMesh
 66
     1
 10
0.0
 20
0.0
 30
0.0
 70
    64
 71
    24
 72
    21
1001
REVIT
1002
{
1070
     1
1000
2289
1002
}
1002
{
1070
     4
1000
1601
1002
}
1002
{
1070
     2
1000
-2001120
1002
}
  0
VERTEX
  5
19C
330
19B
100
AcDbEntity
  8
3D-E-LITE-EQPM
100
AcDbVertex
100
AcDbPolyFaceMeshVertex
 10
5.144511580467223
 20
0.9051122367382048
 30
-0.2306545749306678
 70
   192
  0
VERTEX
  5
19D
330
19B
100
AcDbEntity
  8
3D-E-LITE-EQPM
100
AcDbVertex
100
AcDbPolyFaceMeshVertex
 10
4.910647273063659
 20
2.531673431396484
 30
-0.2306545749306678
 70
   192
  0
VERTEX
  5
19E
330
19B
100
AcDbEntity
  8
3D-E-LITE-EQPM
100
AcDbVertex
100
AcDbPolyFaceMeshVertex
 10
4.228001117706298
 20
4.026460289955138
 30
-0.2306545749306678
 70
   192
  0
VERTEX
  5
19F
330
19B
100
AcDbEntity
  8
3D-E-LITE-EQPM
100
AcDbVertex
100
AcDbPolyFaceMeshVertex
 10
3.15187668800354
 20
5.268374204635619
 30
-0.2306545749306678
 70
   192
  0
VERTEX
  5
1A0
330
19B
100
AcDbEntity
  8
3D-E-LITE-EQPM
100
AcDbVertex
100
AcDbPolyFaceMeshVertex
 10
1.769455075263977
 20
6.156802654266357
 30
-0.2306545749306678
 70
   192
  0
VERTEX
  5
1A1
330
19B
100
AcDbEntity
  8
3D-E-LITE-EQPM
100
AcDbVertex
100
AcDbPolyFaceMeshVertex
 10
0.1927322968840599
 20
6.619769811630248
 30
-0.2306545749306678
 70
   192
  0
VERTEX
  5
1A2
330
19B
100
AcDbEntity
  8
3D-E-LITE-EQPM
100
AcDbVertex
100
AcDbPolyFaceMeshVertex
 10
-1.450555264949798
 20
6.619769811630248
 30
-0.2306545749306678
 70
   192
  0
VERTEX
  5
1A3
330
19B
100
AcDbEntity
  8
3D-E-LITE-EQPM
100
AcDbVertex
100
AcDbPolyFaceMeshVertex
 10
-3.027278065681457
 20
6.156802654266357
 30
-0.2306545749306678
 70
   192
  0
VERTEX
  5
1A4
330
19B
100
AcDbEntity
  8
3D-E-LITE-EQPM
100
AcDbVertex
100
AcDbPolyFaceMeshVertex
 10
-4.40969967842102
 20
5.268374204635619
 30
-0.2306545749306678
 70
   192
  0
VERTEX
  5
1A5
330
19B
100
AcDbEntity
  8
3D-E-LITE-EQPM
100
AcDbVertex
100
AcDbPolyFaceMeshVertex
 10
-5.485824108123778
 20
4.026460289955138
 30
-0.2306545749306678
 70
   192
  0
VERTEX
  5
1A6
330
19B
100
AcDbEntity
  8
3D-E-LITE-EQPM
100
AcDbVertex
100
AcDbPolyFaceMeshVertex
 10
-6.168470621109008
 20
2.531673431396484
 30
-0.2306545749306678
 70
   192
  0
VERTEX
  5
1A7
330
19B
100
AcDbEntity
  8
3D-E-LITE-EQPM
100
AcDbVertex
100
AcDbPolyFaceMeshVertex
 10
-6.402334213256835
 20
0.9051122367382048
 30
-0.2306545749306678
 70
   192
  0
VERTEX
  5
1A8
330
19B
100
AcDbEntity
  8
3D-E-LITE-EQPM
100
AcDbVertex
100
AcDbPolyFaceMeshVertex
 10
-6.628911495208739
 20
0.9051122367382048
 30
-0.1250000037252903
 70
   192
  0
VERTEX
  5
1A9
330
19B
100
AcDbEntity
  8
3D-E-LITE-EQPM
100
AcDbVertex
100
AcDbPolyFaceMeshVertex
 10
-6.385869026184081
 20
2.595507502555847
 30
-0.1250000037252903
 70
   192
  0
VERTEX
  5
1AA
330
19B
100
AcDbEntity
  8
3D-E-LITE-EQPM
100
AcDbVertex
100
AcDbPolyFaceMeshVertex
 10
-5.676432609558105
 20
4.148957133293151
 30
-0.1250000037252903
 70
   192
  0
VERTEX
  5
1AB
330
19B
100
AcDbEntity
  8
3D-E-LITE-EQPM
100
AcDbVertex
100
AcDbPolyFaceMeshVertex
 10
-4.558075904846191
 20
5.439609646797179
 30
-0.1250000037252903
 70
   192
  0
VERTEX
  5
1AC
330
19B
100
AcDbEntity
  8
3D-E-LITE-EQPM
100
AcDbVertex
100
AcDbPolyFaceMeshVertex
 10
-3.12140142917633
 20
6.36290431022644
 30
-0.1250000037252903
 70
   192
  0
VERTEX
  5
1AD
330
19B
100
AcDbEntity
  8
3D-E-LITE-EQPM
100
AcDbVertex
100
AcDbPolyFaceMeshVertex
 10
-1.482800513505935
 20
6.844041109085082
 30
-0.1250000037252903
 70
   192
  0
VERTEX
  5
1AE
330
19B
100
AcDbEntity
  8
3D-E-LITE-EQPM
100
AcDbVertex
100
AcDbPolyFaceMeshVertex
 10
0.224977545440197
 20
6.844041109085082
 30
-0.1250000037252903
 70
   192
  0
VERTEX
  5
1AF
330
19B
100
AcDbEntity
  8
3D-E-LITE-EQPM
100
AcDbVertex
100
AcDbPolyFaceMeshVertex
 10
1.863578617572784
 20
6.36290431022644
 30
-0.1250000037252903
 70
   192
  0
VERTEX
  5
1B0
330
19B
100
AcDbEntity
  8
3D-E-LITE-EQPM
100
AcDbVertex
100
AcDbPolyFaceMeshVertex
 10
3.30025291442871
 20
5.439609646797179
 30
-0.1250000037252903
 70
   192
  0
VERTEX
  5
1B1
330
19B
100
AcDbEntity
  8
3D-E-LITE-EQPM
100
AcDbVertex
100
AcDbPolyFaceMeshVertex
 10
4.418609619140624
 20
4.148957133293151
 30
-0.1250000037252903
 70
   192
  0
VERTEX
  5
1B2
330
19B
100
AcDbEntity
  8
3D-E-LITE-EQPM
100
AcDbVertex
100
AcDbPolyFaceMeshVertex
 10
5.128046393394469
 20
2.595507502555847
 30
-0.1250000037252903
 70
   192
  0
VERTEX
  5
1B3
330
19B
100
AcDbEntity
  8
3D-E-LITE-EQPM
100
AcDbVertex
100
AcDbPolyFaceMeshVertex
 10
5.371088504791259
 20
0.9051122367382048
 30
-0.1250000037252903
 70
   192
  0
VERTEX
  5
1B4
330
19B
100
AcDbEntity
  8
3D-E-LITE-EQPM
100
AcDbFaceRecord
 10
0.0
 20
0.0
 30
0.0
 70
   128
 71
   -14
 72
   -11
 73
    13
  0
VERTEX
  5
1B5
330
19B
100
AcDbEntity
  8
3D-E-LITE-EQPM
100
AcDbFaceRecord
 10
0.0
 20
0.0
 30
0.0
 70
   128
 71
   -15
 72
   -10
 73
    14
  0
VERTEX
  5
1B6
330
19B
100
AcDbEntity
  8
3D-E-LITE-EQPM
100
AcDbFaceRecord
 10
0.0
 20
0.0
 30
0.0
 70
   128
 71
    -8
 72
    16
 73
   -17
  0
VERTEX
  5
1B7
330
19B
100
AcDbEntity
  8
3D-E-LITE-EQPM
100
AcDbFaceRecord
 10
0.0
 20
0.0
 30
0.0
 70
   128
 71
    15
 72
   -16
 73
    -9
  0
VERTEX
  5
1B8
330
19B
100
AcDbEntity
  8
3D-E-LITE-EQPM
100
AcDbFaceRecord
 10
0.0
 20
0.0
 30
0.0
 70
   128
 71
    -7
 72
    17
 73
   -18
  0
VERTEX
  5
1B9
330
19B
100
AcDbEntity
  8
3D-E-LITE-EQPM
100
AcDbFaceRecord
 10
0.0
 20
0.0
 30
0.0
 70
   128
 71
   -14
 72
    10
 73
   -11
  0
VERTEX
  5
1BA
330
19B
100
AcDbEntity
  8
3D-E-LITE-EQPM
100
AcDbFaceRecord
 10
0.0
 20
0.0
 30
0.0
 70
   128
 71
    11
 72
    12
 73
   -13
  0
VERTEX
  5
1BB
330
19B
100
AcDbEntity
  8
3D-E-LITE-EQPM
100
AcDbFaceRecord
 10
0.0
 20
0.0
 30
0.0
 70
   128
 71
   -16
 72
     8
 73
    -9
  0
VERTEX
  5
1BC
330
19B
100
AcDbEntity
  8
3D-E-LITE-EQPM
100
AcDbFaceRecord
 10
0.0
 20
0.0
 30
0.0
 70
   128
 71
     9
 72
   -10
 73
   -15
  0
VERTEX
  5
1BD
330
19B
100
AcDbEntity
  8
3D-E-LITE-EQPM
100
AcDbFaceRecord
 10
0.0
 20
0.0
 30
0.0
 70
   128
 71
   -17
 72
     7
 73
    -8
  0
VERTEX
  5
1BE
330
19B
100
AcDbEntity
  8
3D-E-LITE-EQPM
100
AcDbFaceRecord
 10
0.0
 20
0.0
 30
0.0
 70
   128
 71
     6
 72
    -7
 73
    18
 74
   -19
  0
VERTEX
  5
1BF
330
19B
100
AcDbEntity
  8
3D-E-LITE-EQPM
100
AcDbFaceRecord
 10
0.0
 20
0.0
 30
0.0
 70
   128
 71
    -5
 72
    19
 73
   -20
  0
VERTEX
  5
1C0
330
19B
100
AcDbEntity
  8
3D-E-LITE-EQPM
100
AcDbFaceRecord
 10
0.0
 20
0.0
 30
0.0
 70
   128
 71
    -5
 72
    20
 73
   -21
  0
VERTEX
  5
1C1
330
19B
100
AcDbEntity
  8
3D-E-LITE-EQPM
100
AcDbFaceRecord
 10
0.0
 20
0.0
 30
0.0
 70
   128
 71
    -3
 72
    22
 73
   -23
  0
VERTEX
  5
1C2
330
19B
100
AcDbEntity
  8
3D-E-LITE-EQPM
100
AcDbFaceRecord
 10
0.0
 20
0.0
 30
0.0
 70
   128
 71
   -22
 72
    -4
 73
    21
  0
VERTEX
  5
1C3
330
19B
100
AcDbEntity
  8
3D-E-LITE-EQPM
100
AcDbFaceRecord
 10
0.0
 20
0.0
 30
0.0
 70
   128
 71
    -2
 72
    23
 73
   -24
  0
VERTEX
  5
1C4
330
19B
100
AcDbEntity
  8
3D-E-LITE-EQPM
100
AcDbFaceRecord
 10
0.0
 20
0.0
 30
0.0
 70
   128
 71
     5
 72
    -6
 73
   -19
  0
VERTEX
  5
1C5
330
19B
100
AcDbEntity
  8
3D-E-LITE-EQPM
100
AcDbFaceRecord
 10
0.0
 20
0.0
 30
0.0
 70
   128
 71
     4
 72
    -5
 73
   -21
  0
VERTEX
  5
1C6
330
19B
100
AcDbEntity
  8
3D-E-LITE-EQPM
100
AcDbFaceRecord
 10
0.0
 20
0.0
 30
0.0
 70
   128
 71
   -23
 72
     2
 73
    -3
  0
VERTEX
  5
1C7
330
19B
100
AcDbEntity
  8
3D-E-LITE-EQPM
100
AcDbFaceRecord
 10
0.0
 20
0.0
 30
0.0
 70
   128
 71
     3
 72
    -4
 73
   -22
  0
VERTEX
  5
1C8
330
19B
100
AcDbEntity
  8
3D-E-LITE-EQPM
100
AcDbFaceRecord
 10
0.0
 20
0.0
 30
0.0
 70
   128
 71
     1
 72
    -2
 73
    24
  0
SEQEND
  5
1C9
330
19B
100
AcDbEntity
  8
3D-E-LITE-EQPM
  0
POLYLINE
  5
1CA
330
75
100
AcDbEntity
  8
3D-E-LITE-EQPM
100
AcDbPolyFaceMesh
 66
     1
 10
0.0
 20
0.0
 30
0.0
 70
    64
 71
    44
 72
    26
1001
REVIT
1002
{
1070
     1
1000
2289
1002
}
1002
{
1070
     4
1000
1601
1002
}
1002
{
1070
     2
1000
-2001120
1002
}
  0
VERTEX
  5
1CB
330
1CA
100
AcDbEntity
  8
3D-E-LITE-EQPM
100
AcDbVertex
100
AcDbPolyFaceMeshVertex
 10
-6.402334213256835
 20
0.9051122367382048
 30
-0.2306545749306678
 70
   192
  0
VERTEX
  5
1CC
330
1CA
100
AcDbEntity
  8
3D-E-LITE-EQPM
100
AcDbVertex
100
AcDbPolyFaceMeshVertex
 10
-6.168470621109008
 20
2.531673431396484
 30
-0.2306545749306678
 70
   192
  0
VERTEX
  5
1CD
330
1CA
100
AcDbEntity
  8
3D-E-LITE-EQPM
100
AcDbVertex
100
AcDbPolyFaceMeshVertex
 10
-5.485824108123778
 20
4.026460289955138
 30
-0.2306545749306678
 70
   192
  0
VERTEX
  5
1CE
330
1CA
100
AcDbEntity
  8
3D-E-LITE-EQPM
100
AcDbVertex
100
AcDbPolyFaceMeshVertex
 10
-4.40969967842102
 20
5.268374204635619
 30
-0.2306545749306678
 70
   192
  0
VERTEX
  5
1CF
330
1CA
100
AcDbEntity
  8
3D-E-LITE-EQPM
100
AcDbVertex
100
AcDbPolyFaceMeshVertex
 10
-3.027278065681457
 20
6.156802654266357
 30
-0.2306545749306678
 70
   192
  0
VERTEX
  5
1D0
330
1CA
100
AcDbEntity
  8
3D-E-LITE-EQPM
100
AcDbVertex
100
AcDbPolyFaceMeshVertex
 10
-1.450555264949798
 20
6.619769811630248
 30
-0.2306545749306678
 70
   192
  0
VERTEX
  5
1D1
330
1CA
100
AcDbEntity
  8
3D-E-LITE-EQPM
100
AcDbVertex
100
AcDbPolyFaceMeshVertex
 10
0.1927322968840599
 20
6.619769811630248
 30
-0.2306545749306678
 70
   192
  0
VERTEX
  5
1D2
330
1CA
100
AcDbEntity
  8
3D-E-LITE-EQPM
100
AcDbVertex
100
AcDbPolyFaceMeshVertex
 10
1.769455075263977
 20
6.156802654266357
 30
-0.2306545749306678
 70
   192
  0
VERTEX
  5
1D3
330
1CA
100
AcDbEntity
  8
3D-E-LITE-EQPM
100
AcDbVertex
100
AcDbPolyFaceMeshVertex
 10
3.15187668800354
 20
5.268374204635619
 30
-0.2306545749306678
 70
   192
  0
VERTEX
  5
1D4
330
1CA
100
AcDbEntity
  8
3D-E-LITE-EQPM
100
AcDbVertex
100
AcDbPolyFaceMeshVertex
 10
4.228001117706298
 20
4.026460289955138
 30
-0.2306545749306678
 70
   192
  0
VERTEX
  5
1D5
330
1CA
100
AcDbEntity
  8
3D-E-LITE-EQPM
100
AcDbVertex
100
AcDbPolyFaceMeshVertex
 10
4.910647273063659
 20
2.531673431396484
 30
-0.2306545749306678
 70
   192
  0
VERTEX
  5
1D6
330
1CA
100
AcDbEntity
  8
3D-E-LITE-EQPM
100
AcDbVertex
100
AcDbPolyFaceMeshVertex
 10
5.144511580467223
 20
0.9051122367382048
 30
-0.2306545749306678
 70
   192
  0
VERTEX
  5
1D7
330
1CA
100
AcDbEntity
  8
3D-E-LITE-EQPM
100
AcDbVertex
100
AcDbPolyFaceMeshVertex
 10
4.910647273063659
 20
-0.7214490473270415
 30
-0.2306545749306678
 70
   192
  0
VERTEX
  5
1D8
330
1CA
100
AcDbEntity
  8
3D-E-LITE-EQPM
100
AcDbVertex
100
AcDbPolyFaceMeshVertex
 10
4.228001117706298
 20
-2.216235995292663
 30
-0.2306545749306678
 70
   192
  0
VERTEX
  5
1D9
330
1CA
100
AcDbEntity
  8
3D-E-LITE-EQPM
100
AcDbVertex
100
AcDbPolyFaceMeshVertex
 10
3.15187668800354
 20
-3.458149909973144
 30
-0.2306545749306678
 70
   192
  0
VERTEX
  5
1DA
330
1CA
100
AcDbEntity
  8
3D-E-LITE-EQPM
100
AcDbVertex
100
AcDbPolyFaceMeshVertex
 10
1.769455075263977
 20
-4.346578001976012
 30
-0.2306545749306678
 70
   192
  0
VERTEX
  5
1DB
330
1CA
100
AcDbEntity
  8
3D-E-LITE-EQPM
100
AcDbVertex
100
AcDbPolyFaceMeshVertex
 10
0.1927322968840599
 20
-4.809545874595641
 30
-0.2306545749306678
 70
   192
  0
VERTEX
  5
1DC
330
1CA
100
AcDbEntity
  8
3D-E-LITE-EQPM
100
AcDbVertex
100
AcDbPolyFaceMeshVertex
 10
-1.450555264949798
 20
-4.809545874595641
 30
-0.2306545749306678
 70
   192
  0
VERTEX
  5
1DD
330
1CA
100
AcDbEntity
  8
3D-E-LITE-EQPM
100
AcDbVertex
100
AcDbPolyFaceMeshVertex
 10
-3.027278065681457
 20
-4.346578001976012
 30
-0.2306545749306678
 70
   192
  0
VERTEX
  5
1DE
330
1CA
100
AcDbEntity
  8
3D-E-LITE-EQPM
100
AcDbVertex
100
AcDbPolyFaceMeshVertex
 10
-4.40969967842102
 20
-3.458149909973144
 30
-0.2306545749306678
 70
   192
  0
VERTEX
  5
1DF
330
1CA
100
AcDbEntity
  8
3D-E-LITE-EQPM
100
AcDbVertex
100
AcDbPolyFaceMeshVertex
 10
-5.485824108123778
 20
-2.216235995292663
 30
-0.2306545749306678
 70
   192
  0
VERTEX
  5
1E0
330
1CA
100
AcDbEntity
  8
3D-E-LITE-EQPM
100
AcDbVertex
100
AcDbPolyFaceMeshVertex
 10
-6.168470621109008
 20
-0.7214490473270415
 30
-0.2306545749306678
 70
   192
  0
VERTEX
  5
1E1
330
1CA
100
AcDbEntity
  8
3D-E-LITE-EQPM
100
AcDbVertex
100
AcDbPolyFaceMeshVertex
 10
4.518979310989379
 20
0.9051122367382048
 30
-0.2306545749306678
 70
   192
  0
VERTEX
  5
1E2
330
1CA
100
AcDbEntity
  8
3D-E-LITE-EQPM
100
AcDbVertex
100
AcDbPolyFaceMeshVertex
 10
4.310453295707702
 20
2.35544067621231
 30
-0.2306545749306678
 70
   192
  0
VERTEX
  5
1E3
330
1CA
100
AcDbEntity
  8
3D-E-LITE-EQPM
100
AcDbVertex
100
AcDbPolyFaceMeshVertex
 10
3.701769590377807
 20
3.68827199935913
 30
-0.2306545749306678
 70
   192
  0
VERTEX
  5
1E4
330
1CA
100
AcDbEntity
  8
3D-E-LITE-EQPM
100
AcDbVertex
100
AcDbPolyFaceMeshVertex
 10
2.742239892482757
 20
4.795628428459167
 30
-0.2306545749306678
 70
   192
  0
VERTEX
  5
1E5
330
1CA
100
AcDbEntity
  8
3D-E-LITE-EQPM
100
AcDbVertex
100
AcDbPolyFaceMeshVertex
 10
1.5095996260643
 20
5.587798118591308
 30
-0.2306545749306678
 70
   192
  0
VERTEX
  5
1E6
330
1CA
100
AcDbEntity
  8
3D-E-LITE-EQPM
100
AcDbVertex
100
AcDbPolyFaceMeshVertex
 10
0.1037097461521625
 20
6.000604391098022
 30
-0.2306545749306678
 70
   192
  0
VERTEX
  5
1E7
330
1CA
100
AcDbEntity
  8
3D-E-LITE-EQPM
100
AcDbVertex
100
AcDbPolyFaceMeshVertex
 10
-1.361532658338547
 20
6.000604391098022
 30
-0.2306545749306678
 70
   192
  0
VERTEX
  5
1E8
330
1CA
100
AcDbEntity
  8
3D-E-LITE-EQPM
100
AcDbVertex
100
AcDbPolyFaceMeshVertex
 10
-2.767422616481781
 20
5.587798118591308
 30
-0.2306545749306678
 70
   192
  0
VERTEX
  5
1E9
330
1CA
100
AcDbEntity
  8
3D-E-LITE-EQPM
100
AcDbVertex
100
AcDbPolyFaceMeshVertex
 10
-4.000063061714171
 20
4.795628428459167
 30
-0.2306545749306678
 70
   192
  0
VERTEX
  5
1EA
330
1CA
100
AcDbEntity
  8
3D-E-LITE-EQPM
100
AcDbVertex
100
AcDbPolyFaceMeshVertex
 10
-4.959592580795287
 20
3.68827199935913
 30
-0.2306545749306678
 70
   192
  0
VERTEX
  5
1EB
330
1CA
100
AcDbEntity
  8
3D-E-LITE-EQPM
100
AcDbVertex
100
AcDbPolyFaceMeshVertex
 10
-5.568276286125182
 20
2.35544067621231
 30
-0.2306545749306678
 70
   192
  0
VERTEX
  5
1EC
330
1CA
100
AcDbEntity
  8
3D-E-LITE-EQPM
100
AcDbVertex
100
AcDbPolyFaceMeshVertex
 10
-5.776802301406859
 20
0.9051122367382048
 30
-0.2306545749306678
 70
   192
  0
VERTEX
  5
1ED
330
1CA
100
AcDbEntity
  8
3D-E-LITE-EQPM
100
AcDbVertex
100
AcDbPolyFaceMeshVertex
 10
-5.568276286125182
 20
-0.5452162027359008
 30
-0.2306545749306678
 70
   192
  0
VERTEX
  5
1EE
330
1CA
100
AcDbEntity
  8
3D-E-LITE-EQPM
100
AcDbVertex
100
AcDbPolyFaceMeshVertex
 10
-4.959592580795287
 20
-1.878047525882721
 30
-0.2306545749306678
 70
   192
  0
VERTEX
  5
1EF
330
1CA
100
AcDbEntity
  8
3D-E-LITE-EQPM
100
AcDbVertex
100
AcDbPolyFaceMeshVertex
 10
-4.000063061714171
 20
-2.985403954982757
 30
-0.2306545749306678
 70
   192
  0
VERTEX
  5
1F0
330
1CA
100
AcDbEntity
  8
3D-E-LITE-EQPM
100
AcDbVertex
100
AcDbPolyFaceMeshVertex
 10
-2.767422616481781
 20
-3.777573823928833
 30
-0.2306545749306678
 70
   192
  0
VERTEX
  5
1F1
330
1CA
100
AcDbEntity
  8
3D-E-LITE-EQPM
100
AcDbVertex
100
AcDbPolyFaceMeshVertex
 10
-1.361532658338547
 20
-4.190380454063415
 30
-0.2306545749306678
 70
   192
  0
VERTEX
  5
1F2
330
1CA
100
AcDbEntity
  8
3D-E-LITE-EQPM
100
AcDbVertex
100
AcDbPolyFaceMeshVertex
 10
0.1037097461521625
 20
-4.190380454063415
 30
-0.2306545749306678
 70
   192
  0
VERTEX
  5
1F3
330
1CA
100
AcDbEntity
  8
3D-E-LITE-EQPM
100
AcDbVertex
100
AcDbPolyFaceMeshVertex
 10
1.5095996260643
 20
-3.777573823928833
 30
-0.2306545749306678
 70
   192
  0
VERTEX
  5
1F4
330
1CA
100
AcDbEntity
  8
3D-E-LITE-EQPM
100
AcDbVertex
100
AcDbPolyFaceMeshVertex
 10
2.742239892482757
 20
-2.985403954982757
 30
-0.2306545749306678
 70
   192
  0
VERTEX
  5
1F5
330
1CA
100
AcDbEntity
  8
3D-E-LITE-EQPM
100
AcDbVertex
100
AcDbPolyFaceMeshVertex
 10
3.701769590377807
 20
-1.878047525882721
 30
-0.2306545749306678
 70
   192
  0
VERTEX
  5
1F6
330
1CA
100
AcDbEntity
  8
3D-E-LITE-EQPM
100
AcDbVertex
100
AcDbPolyFaceMeshVertex
 10
4.310453295707702
 20
-0.5452162027359008
 30
-0.2306545749306678
 70
   192
  0
VERTEX
  5
1F7
330
1CA
100
AcDbEntity
  8
3D-E-LITE-EQPM
100
AcDbFaceRecord
 10
0.0
 20
0.0
 30
0.0
 70
   128
 71
    43
 72
   -44
 73
    14
 74
   -15
  0
VERTEX
  5
1F8
330
1CA
100
AcDbEntity
  8
3D-E-LITE-EQPM
100
AcDbFaceRecord
 10
0.0
 20
0.0
 30
0.0
 70
   128
 71
    44
 72
   -23
 73
    13
 74
   -14
  0
VERTEX
  5
1F9
330
1CA
100
AcDbEntity
  8
3D-E-LITE-EQPM
100
AcDbFaceRecord
 10
0.0
 20
0.0
 30
0.0
 70
   128
 71
    12
 72
   -13
 73
    23
 74
   -24
  0
VERTEX
  5
1FA
330
1CA
100
AcDbEntity
  8
3D-E-LITE-EQPM
100
AcDbFaceRecord
 10
0.0
 20
0.0
 30
0.0
 70
   128
 71
   -40
 72
    16
 73
   -17
 74
    39
  0
VERTEX
  5
1FB
330
1CA
100
AcDbEntity
  8
3D-E-LITE-EQPM
100
AcDbFaceRecord
 10
0.0
 20
0.0
 30
0.0
 70
   128
 71
   -16
 72
    40
 73
   -41
  0
VERTEX
  5
1FC
330
1CA
100
AcDbEntity
  8
3D-E-LITE-EQPM
100
AcDbFaceRecord
 10
0.0
 20
0.0
 30
0.0
 70
   128
 71
   -42
 72
    15
 73
   -16
 74
    41
  0
VERTEX
  5
1FD
330
1CA
100
AcDbEntity
  8
3D-E-LITE-EQPM
100
AcDbFaceRecord
 10
0.0
 20
0.0
 30
0.0
 70
   128
 71
   -15
 72
    42
 73
   -43
  0
VERTEX
  5
1FE
330
1CA
100
AcDbEntity
  8
3D-E-LITE-EQPM
100
AcDbFaceRecord
 10
0.0
 20
0.0
 30
0.0
 70
   128
 71
   -12
 72
   -24
 73
    11
  0
VERTEX
  5
1FF
330
1CA
100
AcDbEntity
  8
3D-E-LITE-EQPM
100
AcDbFaceRecord
 10
0.0
 20
0.0
 30
0.0
 70
   128
 71
   -25
 72
    10
 73
   -11
 74
    24
  0
VERTEX
  5
200
330
1CA
100
AcDbEntity
  8
3D-E-LITE-EQPM
100
AcDbFaceRecord
 10
0.0
 20
0.0
 30
0.0
 70
   128
 71
   -10
 72
    25
 73
   -26
  0
VERTEX
  5
201
330
1CA
100
AcDbEntity
  8
3D-E-LITE-EQPM
100
AcDbFaceRecord
 10
0.0
 20
0.0
 30
0.0
 70
   128
 71
    26
 72
   -27
 73
     9
 74
   -10
  0
VERTEX
  5
202
330
1CA
100
AcDbEntity
  8
3D-E-LITE-EQPM
100
AcDbFaceRecord
 10
0.0
 20
0.0
 30
0.0
 70
   128
 71
    -9
 72
   -27
 73
     8
  0
VERTEX
  5
203
330
1CA
100
AcDbEntity
  8
3D-E-LITE-EQPM
100
AcDbFaceRecord
 10
0.0
 20
0.0
 30
0.0
 70
   128
 71
   -28
 72
     7
 73
    -8
 74
    27
  0
VERTEX
  5
204
330
1CA
100
AcDbEntity
  8
3D-E-LITE-EQPM
100
AcDbFaceRecord
 10
0.0
 20
0.0
 30
0.0
 70
   128
 71
    -7
 72
    28
 73
   -29
 74
     6
  0
VERTEX
  5
205
330
1CA
100
AcDbEntity
  8
3D-E-LITE-EQPM
100
AcDbFaceRecord
 10
0.0
 20
0.0
 30
0.0
 70
   128
 71
    18
 72
   -19
 73
    38
 74
   -39
  0
VERTEX
  5
206
330
1CA
100
AcDbEntity
  8
3D-E-LITE-EQPM
100
AcDbFaceRecord
 10
0.0
 20
0.0
 30
0.0
 70
   128
 71
    37
 72
   -38
 73
    19
 74
   -20
  0
VERTEX
  5
207
330
1CA
100
AcDbEntity
  8
3D-E-LITE-EQPM
100
AcDbFaceRecord
 10
0.0
 20
0.0
 30
0.0
 70
   128
 71
   -18
 72
   -39
 73
    17
  0
VERTEX
  5
208
330
1CA
100
AcDbEntity
  8
3D-E-LITE-EQPM
100
AcDbFaceRecord
 10
0.0
 20
0.0
 30
0.0
 70
   128
 71
   -36
 72
    20
 73
   -21
 74
    35
  0
VERTEX
  5
209
330
1CA
100
AcDbEntity
  8
3D-E-LITE-EQPM
100
AcDbFaceRecord
 10
0.0
 20
0.0
 30
0.0
 70
   128
 71
   -22
 72
    34
 73
   -35
 74
    21
  0
VERTEX
  5
20A
330
1CA
100
AcDbEntity
  8
3D-E-LITE-EQPM
100
AcDbFaceRecord
 10
0.0
 20
0.0
 30
0.0
 70
   128
 71
   -34
 72
    22
 73
    -1
 74
    33
  0
VERTEX
  5
20B
330
1CA
100
AcDbEntity
  8
3D-E-LITE-EQPM
100
AcDbFaceRecord
 10
0.0
 20
0.0
 30
0.0
 70
   128
 71
    36
 72
   -37
 73
   -20
  0
VERTEX
  5
20C
330
1CA
100
AcDbEntity
  8
3D-E-LITE-EQPM
100
AcDbFaceRecord
 10
0.0
 20
0.0
 30
0.0
 70
   128
 71
     4
 72
    -5
 73
    30
 74
   -31
  0
VERTEX
  5
20D
330
1CA
100
AcDbEntity
  8
3D-E-LITE-EQPM
100
AcDbFaceRecord
 10
0.0
 20
0.0
 30
0.0
 70
   128
 71
    -6
 72
    29
 73
   -30
 74
     5
  0
VERTEX
  5
20E
330
1CA
100
AcDbEntity
  8
3D-E-LITE-EQPM
100
AcDbFaceRecord
 10
0.0
 20
0.0
 30
0.0
 70
   128
 71
   -33
 72
     1
 73
    -2
 74
    32
  0
VERTEX
  5
20F
330
1CA
100
AcDbEntity
  8
3D-E-LITE-EQPM
100
AcDbFaceRecord
 10
0.0
 20
0.0
 30
0.0
 70
   128
 71
     3
 72
    -4
 73
    31
 74
   -32
  0
VERTEX
  5
210
330
1CA
100
AcDbEntity
  8
3D-E-LITE-EQPM
100
AcDbFaceRecord
 10
0.0
 20
0.0
 30
0.0
 70
   128
 71
    -3
 72
   -32
 73
     2
  0
SEQEND
  5
211
330
1CA
100
AcDbEntity
  8
3D-E-LITE-EQPM
  0
POLYLINE
  5
212
330
75
100
AcDbEntity
  8
3D-E-LITE-EQPM
100
AcDbPolyFaceMesh
 66
     1
 10
0.0
 20
0.0
 30
0.0
 70
    64
 71
    23
 72
    21
1001
REVIT
1002
{
1070
     1
1000
2289
1002
}
1002
{
1070
     4
1000
1601
1002
}
1002
{
1070
     2
1000
-2001120
1002
}
  0
VERTEX
  5
213
330
212
100
AcDbEntity
  8
3D-E-LITE-EQPM
100
AcDbVertex
100
AcDbPolyFaceMeshVertex
 10
4.245823144912719
 20
0.9051122367382048
 30
0.0000000000000271
 70
   192
  0
VERTEX
  5
214
330
212
100
AcDbEntity
  8
3D-E-LITE-EQPM
100
AcDbVertex
100
AcDbPolyFaceMeshVertex
 10
4.007236719131469
 20
2.411488115787506
 30
0.0000000000000271
 70
   192
  0
VERTEX
  5
215
330
212
100
AcDbEntity
  8
3D-E-LITE-EQPM
100
AcDbVertex
100
AcDbPolyFaceMeshVertex
 10
3.314831614494323
 20
3.77040946483612
 30
0.0000000000000271
 70
   192
  0
VERTEX
  5
216
330
212
100
AcDbEntity
  8
3D-E-LITE-EQPM
100
AcDbVertex
100
AcDbPolyFaceMeshVertex
 10
2.236385643482208
 20
4.848855257034301
 30
0.0000000000000271
 70
   192
  0
VERTEX
  5
217
330
212
100
AcDbEntity
  8
3D-E-LITE-EQPM
100
AcDbVertex
100
AcDbPolyFaceMeshVertex
 10
0.8774643838405608
 20
5.541260361671447
 30
0.0000000000000271
 70
   192
  0
VERTEX
  5
218
330
212
100
AcDbEntity
  8
3D-E-LITE-EQPM
100
AcDbVertex
100
AcDbPolyFaceMeshVertex
 10
-0.6289114952087401
 20
5.779846787452697
 30
0.0000000000000271
 70
   192
  0
VERTEX
  5
219
330
212
100
AcDbEntity
  8
3D-E-LITE-EQPM
100
AcDbVertex
100
AcDbPolyFaceMeshVertex
 10
-2.135287284851074
 20
5.541260361671447
 30
0.0000000000000271
 70
   192
  0
VERTEX
  5
21A
330
212
100
AcDbEntity
  8
3D-E-LITE-EQPM
100
AcDbVertex
100
AcDbPolyFaceMeshVertex
 10
-3.494208812713623
 20
4.848855257034301
 30
0.0000000000000271
 70
   192
  0
VERTEX
  5
21B
330
212
100
AcDbEntity
  8
3D-E-LITE-EQPM
100
AcDbVertex
100
AcDbPolyFaceMeshVertex
 10
-4.572654604911803
 20
3.77040946483612
 30
0.0000000000000271
 70
   192
  0
VERTEX
  5
21C
330
212
100
AcDbEntity
  8
3D-E-LITE-EQPM
100
AcDbVertex
100
AcDbPolyFaceMeshVertex
 10
-5.265059709548949
 20
2.411488115787506
 30
0.0000000000000271
 70
   192
  0
VERTEX
  5
21D
330
212
100
AcDbEntity
  8
3D-E-LITE-EQPM
100
AcDbVertex
100
AcDbPolyFaceMeshVertex
 10
-5.503646135330199
 20
0.9051122367382048
 30
0.0000000000000271
 70
   192
  0
VERTEX
  5
21E
330
212
100
AcDbEntity
  8
3D-E-LITE-EQPM
100
AcDbVertex
100
AcDbPolyFaceMeshVertex
 10
-5.776802301406859
 20
0.9051122367382048
 30
-0.2306545749306678
 70
   192
  0
VERTEX
  5
21F
330
212
100
AcDbEntity
  8
3D-E-LITE-EQPM
100
AcDbVertex
100
AcDbPolyFaceMeshVertex
 10
-5.568276286125182
 20
2.35544067621231
 30
-0.2306545749306678
 70
   192
  0
VERTEX
  5
220
330
212
100
AcDbEntity
  8
3D-E-LITE-EQPM
100
AcDbVertex
100
AcDbPolyFaceMeshVertex
 10
-4.959592580795287
 20
3.68827199935913
 30
-0.2306545749306678
 70
   192
  0
VERTEX
  5
221
330
212
100
AcDbEntity
  8
3D-E-LITE-EQPM
100
AcDbVertex
100
AcDbPolyFaceMeshVertex
 10
-4.000063061714171
 20
4.795628428459167
 30
-0.2306545749306678
 70
   192
  0
VERTEX
  5
222
330
212
100
AcDbEntity
  8
3D-E-LITE-EQPM
100
AcDbVertex
100
AcDbPolyFaceMeshVertex
 10
-2.767422616481781
 20
5.587798118591308
 30
-0.2306545749306678
 70
   192
  0
VERTEX
  5
223
330
212
100
AcDbEntity
  8
3D-E-LITE-EQPM
100
AcDbVertex
100
AcDbPolyFaceMeshVertex
 10
-1.361532658338547
 20
6.000604391098022
 30
-0.2306545749306678
 70
   192
  0
VERTEX
  5
224
330
212
100
AcDbEntity
  8
3D-E-LITE-EQPM
100
AcDbVertex
100
AcDbPolyFaceMeshVertex
 10
0.1037097461521625
 20
6.000604391098022
 30
-0.2306545749306678
 70
   192
  0
VERTEX
  5
225
330
212
100
AcDbEntity
  8
3D-E-LITE-EQPM
100
AcDbVertex
100
AcDbPolyFaceMeshVertex
 10
1.5095996260643
 20
5.587798118591308
 30
-0.2306545749306678
 70
   192
  0
VERTEX
  5
226
330
212
100
AcDbEntity
  8
3D-E-LITE-EQPM
100
AcDbVertex
100
AcDbPolyFaceMeshVertex
 10
2.742239892482757
 20
4.795628428459167
 30
-0.2306545749306678
 70
   192
  0
VERTEX
  5
227
330
212
100
AcDbEntity
  8
3D-E-LITE-EQPM
100
AcDbVertex
100
AcDbPolyFaceMeshVertex
 10
3.701769590377807
 20
3.68827199935913
 30
-0.2306545749306678
 70
   192
  0
VERTEX
  5
228
330
212
100
AcDbEntity
  8
3D-E-LITE-EQPM
100
AcDbVertex
100
AcDbPolyFaceMeshVertex
 10
4.310453295707702
 20
2.35544067621231
 30
-0.2306545749306678
 70
   192
  0
VERTEX
  5
229
330
212
100
AcDbEntity
  8
3D-E-LITE-EQPM
100
AcDbVertex
100
AcDbPolyFaceMeshVertex
 10
4.518979310989379
 20
0.9051122367382048
 30
-0.2306545749306678
 70
   192
  0
VERTEX
  5
22A
330
212
100
AcDbEntity
  8
3D-E-LITE-EQPM
100
AcDbFaceRecord
 10
0.0
 20
0.0
 30
0.0
 70
   128
 71
    11
 72
    12
 73
   -13
  0
VERTEX
  5
22B
330
212
100
AcDbEntity
  8
3D-E-LITE-EQPM
100
AcDbFaceRecord
 10
0.0
 20
0.0
 30
0.0
 70
   128
 71
    -9
 72
    14
 73
   -15
  0
VERTEX
  5
22C
330
212
100
AcDbEntity
  8
3D-E-LITE-EQPM
100
AcDbFaceRecord
 10
0.0
 20
0.0
 30
0.0
 70
   128
 71
    13
 72
   -14
 73
   -10
  0
VERTEX
  5
22D
330
212
100
AcDbEntity
  8
3D-E-LITE-EQPM
100
AcDbFaceRecord
 10
0.0
 20
0.0
 30
0.0
 70
   128
 71
    15
 72
   -16
 73
    -8
  0
VERTEX
  5
22E
330
212
100
AcDbEntity
  8
3D-E-LITE-EQPM
100
AcDbFaceRecord
 10
0.0
 20
0.0
 30
0.0
 70
   128
 71
   -14
 72
     9
 73
   -10
  0
VERTEX
  5
22F
330
212
100
AcDbEntity
  8
3D-E-LITE-EQPM
100
AcDbFaceRecord
 10
0.0
 20
0.0
 30
0.0
 70
   128
 71
    10
 72
   -11
 73
   -13
  0
VERTEX
  5
230
330
212
100
AcDbEntity
  8
3D-E-LITE-EQPM
100
AcDbFaceRecord
 10
0.0
 20
0.0
 30
0.0
 70
   128
 71
   -16
 72
     7
 73
    -8
  0
VERTEX
  5
231
330
212
100
AcDbEntity
  8
3D-E-LITE-EQPM
100
AcDbFaceRecord
 10
0.0
 20
0.0
 30
0.0
 70
   128
 71
     8
 72
    -9
 73
   -15
  0
VERTEX
  5
232
330
212
100
AcDbEntity
  8
3D-E-LITE-EQPM
100
AcDbFaceRecord
 10
0.0
 20
0.0
 30
0.0
 70
   128
 71
    -7
 72
   -17
 73
     6
  0
VERTEX
  5
233
330
212
100
AcDbEntity
  8
3D-E-LITE-EQPM
100
AcDbFaceRecord
 10
0.0
 20
0.0
 30
0.0
 70
   128
 71
    16
 72
   -17
 73
    -7
  0
VERTEX
  5
234
330
212
100
AcDbEntity
  8
3D-E-LITE-EQPM
100
AcDbFaceRecord
 10
0.0
 20
0.0
 30
0.0
 70
   128
 71
    -5
 72
    18
 73
   -19
  0
VERTEX
  5
235
330
212
100
AcDbEntity
  8
3D-E-LITE-EQPM
100
AcDbFaceRecord
 10
0.0
 20
0.0
 30
0.0
 70
   128
 71
    -4
 72
    19
 73
   -20
  0
VERTEX
  5
236
330
212
100
AcDbEntity
  8
3D-E-LITE-EQPM
100
AcDbFaceRecord
 10
0.0
 20
0.0
 30
0.0
 70
   128
 71
    -2
 72
    21
 73
   -22
  0
VERTEX
  5
237
330
212
100
AcDbEntity
  8
3D-E-LITE-EQPM
100
AcDbFaceRecord
 10
0.0
 20
0.0
 30
0.0
 70
   128
 71
    -1
 72
    22
 73
    23
  0
VERTEX
  5
238
330
212
100
AcDbEntity
  8
3D-E-LITE-EQPM
100
AcDbFaceRecord
 10
0.0
 20
0.0
 30
0.0
 70
   128
 71
    20
 72
   -21
 73
    -3
  0
VERTEX
  5
239
330
212
100
AcDbEntity
  8
3D-E-LITE-EQPM
100
AcDbFaceRecord
 10
0.0
 20
0.0
 30
0.0
 70
   128
 71
   -18
 72
     5
 73
    -6
  0
VERTEX
  5
23A
330
212
100
AcDbEntity
  8
3D-E-LITE-EQPM
100
AcDbFaceRecord
 10
0.0
 20
0.0
 30
0.0
 70
   128
 71
    -5
 72
   -19
 73
     4
  0
VERTEX
  5
23B
330
212
100
AcDbEntity
  8
3D-E-LITE-EQPM
100
AcDbFaceRecord
 10
0.0
 20
0.0
 30
0.0
 70
   128
 71
   -21
 72
     2
 73
    -3
  0
VERTEX
  5
23C
330
212
100
AcDbEntity
  8
3D-E-LITE-EQPM
100
AcDbFaceRecord
 10
0.0
 20
0.0
 30
0.0
 70
   128
 71
    -2
 72
   -22
 73
     1
  0
VERTEX
  5
23D
330
212
100
AcDbEntity
  8
3D-E-LITE-EQPM
100
AcDbFaceRecord
 10
0.0
 20
0.0
 30
0.0
 70
   128
 71
    -4
 72
   -20
 73
     3
  0
VERTEX
  5
23E
330
212
100
AcDbEntity
  8
3D-E-LITE-EQPM
100
AcDbFaceRecord
 10
0.0
 20
0.0
 30
0.0
 70
   128
 71
   -18
 72
    -6
 73
    17
  0
SEQEND
  5
23F
330
212
100
AcDbEntity
  8
3D-E-LITE-EQPM
  0
POLYLINE
  5
240
330
75
100
AcDbEntity
  8
3D-E-LITE-EQPM
100
AcDbPolyFaceMesh
 66
     1
 10
0.0
 20
0.0
 30
0.0
 70
    64
 71
    22
 72
    10
1001
REVIT
1002
{
1070
     1
1000
2289
1002
}
1002
{
1070
     4
1000
1601
1002
}
1002
{
1070
     2
1000
-2001120
1002
}
  0
VERTEX
  5
241
330
240
100
AcDbEntity
  8
3D-E-LITE-EQPM
100
AcDbVertex
100
AcDbPolyFaceMeshVertex
 10
4.245823144912719
 20
0.9051122367382048
 30
0.0000000000000271
 70
   192
  0
VERTEX
  5
242
330
240
100
AcDbEntity
  8
3D-E-LITE-EQPM
100
AcDbVertex
100
AcDbPolyFaceMeshVertex
 10
4.007236719131469
 20
2.411488115787506
 30
0.0000000000000271
 70
   192
  0
VERTEX
  5
243
330
240
100
AcDbEntity
  8
3D-E-LITE-EQPM
100
AcDbVertex
100
AcDbPolyFaceMeshVertex
 10
3.314831614494323
 20
3.77040946483612
 30
0.0000000000000271
 70
   192
  0
VERTEX
  5
244
330
240
100
AcDbEntity
  8
3D-E-LITE-EQPM
100
AcDbVertex
100
AcDbPolyFaceMeshVertex
 10
2.236385643482208
 20
4.848855257034301
 30
0.0000000000000271
 70
   192
  0
VERTEX
  5
245
330
240
100
AcDbEntity
  8
3D-E-LITE-EQPM
100
AcDbVertex
100
AcDbPolyFaceMeshVertex
 10
0.8774643838405608
 20
5.541260361671447
 30
0.0000000000000271
 70
   192
  0
VERTEX
  5
246
330
240
100
AcDbEntity
  8
3D-E-LITE-EQPM
100
AcDbVertex
100
AcDbPolyFaceMeshVertex
 10
-0.6289114952087401
 20
5.779846787452697
 30
0.0000000000000271
 70
   192
  0
VERTEX
  5
247
330
240
100
AcDbEntity
  8
3D-E-LITE-EQPM
100
AcDbVertex
100
AcDbPolyFaceMeshVertex
 10
-2.135287284851074
 20
5.541260361671447
 30
0.0000000000000271
 70
   192
  0
VERTEX
  5
248
330
240
100
AcDbEntity
  8
3D-E-LITE-EQPM
100
AcDbVertex
100
AcDbPolyFaceMeshVertex
 10
-3.494208812713623
 20
4.848855257034301
 30
0.0000000000000271
 70
   192
  0
VERTEX
  5
249
330
240
100
AcDbEntity
  8
3D-E-LITE-EQPM
100
AcDbVertex
100
AcDbPolyFaceMeshVertex
 10
-4.572654604911803
 20
3.77040946483612
 30
0.0000000000000271
 70
   192
  0
VERTEX
  5
24A
330
240
100
AcDbEntity
  8
3D-E-LITE-EQPM
100
AcDbVertex
100
AcDbPolyFaceMeshVertex
 10
-5.265059709548949
 20
2.411488115787506
 30
0.0000000000000271
 70
   192
  0
VERTEX
  5
24B
330
240
100
AcDbEntity
  8
3D-E-LITE-EQPM
100
AcDbVertex
100
AcDbPolyFaceMeshVertex
 10
-5.503646135330199
 20
0.9051122367382048
 30
0.0000000000000271
 70
   192
  0
VERTEX
  5
24C
330
240
100
AcDbEntity
  8
3D-E-LITE-EQPM
100
AcDbVertex
100
AcDbPolyFaceMeshVertex
 10
-5.503646135330199
 20
0.9051122367382048
 30
0.2500000074505805
 70
   192
  0
VERTEX
  5
24D
330
240
100
AcDbEntity
  8
3D-E-LITE-EQPM
100
AcDbVertex
100
AcDbPolyFaceMeshVertex
 10
-5.265059709548949
 20
2.411488115787506
 30
0.2500000074505805
 70
   192
  0
VERTEX
  5
24E
330
240
100
AcDbEntity
  8
3D-E-LITE-EQPM
100
AcDbVertex
100
AcDbPolyFaceMeshVertex
 10
-4.572654604911803
 20
3.77040946483612
 30
0.2500000074505805
 70
   192
  0
VERTEX
  5
24F
330
240
100
AcDbEntity
  8
3D-E-LITE-EQPM
100
AcDbVertex
100
AcDbPolyFaceMeshVertex
 10
-3.494208812713623
 20
4.848855257034301
 30
0.2500000074505805
 70
   192
  0
VERTEX
  5
250
330
240
100
AcDbEntity
  8
3D-E-LITE-EQPM
100
AcDbVertex
100
AcDbPolyFaceMeshVertex
 10
-2.135287284851074
 20
5.541260361671447
 30
0.2500000074505805
 70
   192
  0
VERTEX
  5
251
330
240
100
AcDbEntity
  8
3D-E-LITE-EQPM
100
AcDbVertex
100
AcDbPolyFaceMeshVertex
 10
-0.6289114952087401
 20
5.779846787452697
 30
0.2500000074505805
 70
   192
  0
VERTEX
  5
252
330
240
100
AcDbEntity
  8
3D-E-LITE-EQPM
100
AcDbVertex
100
AcDbPolyFaceMeshVertex
 10
0.8774643838405608
 20
5.541260361671447
 30
0.2500000074505805
 70
   192
  0
VERTEX
  5
253
330
240
100
AcDbEntity
  8
3D-E-LITE-EQPM
100
AcDbVertex
100
AcDbPolyFaceMeshVertex
 10
2.236385643482208
 20
4.848855257034301
 30
0.2500000074505805
 70
   192
  0
VERTEX
  5
254
330
240
100
AcDbEntity
  8
3D-E-LITE-EQPM
100
AcDbVertex
100
AcDbPolyFaceMeshVertex
 10
3.314831614494323
 20
3.77040946483612
 30
0.2500000074505805
 70
   192
  0
VERTEX
  5
255
330
240
100
AcDbEntity
  8
3D-E-LITE-EQPM
100
AcDbVertex
100
AcDbPolyFaceMeshVertex
 10
4.007236719131469
 20
2.411488115787506
 30
0.2500000074505805
 70
   192
  0
VERTEX
  5
256
330
240
100
AcDbEntity
  8
3D-E-LITE-EQPM
100
AcDbVertex
100
AcDbPolyFaceMeshVertex
 10
4.245823144912719
 20
0.9051122367382048
 30
0.2500000074505805
 70
   192
  0
VERTEX
  5
257
330
240
100
AcDbEntity
  8
3D-E-LITE-EQPM
100
AcDbFaceRecord
 10
0.0
 20
0.0
 30
0.0
 70
   128
 71
    13
 72
    12
 73
    11
 74
   -10
  0
VERTEX
  5
258
330
240
100
AcDbEntity
  8
3D-E-LITE-EQPM
100
AcDbFaceRecord
 10
0.0
 20
0.0
 30
0.0
 70
   128
 71
    15
 72
   -14
 73
     9
 74
    -8
  0
VERTEX
  5
259
330
240
100
AcDbEntity
  8
3D-E-LITE-EQPM
100
AcDbFaceRecord
 10
0.0
 20
0.0
 30
0.0
 70
   128
 71
    14
 72
   -13
 73
    10
 74
    -9
  0
VERTEX
  5
25A
330
240
100
AcDbEntity
  8
3D-E-LITE-EQPM
100
AcDbFaceRecord
 10
0.0
 20
0.0
 30
0.0
 70
   128
 71
    16
 72
   -15
 73
     8
 74
    -7
  0
VERTEX
  5
25B
330
240
100
AcDbEntity
  8
3D-E-LITE-EQPM
100
AcDbFaceRecord
 10
0.0
 20
0.0
 30
0.0
 70
   128
 71
     7
 72
    -6
 73
    17
 74
   -16
  0
VERTEX
  5
25C
330
240
100
AcDbEntity
  8
3D-E-LITE-EQPM
100
AcDbFaceRecord
 10
0.0
 20
0.0
 30
0.0
 70
   128
 71
    19
 72
   -18
 73
     5
 74
    -4
  0
VERTEX
  5
25D
330
240
100
AcDbEntity
  8
3D-E-LITE-EQPM
100
AcDbFaceRecord
 10
0.0
 20
0.0
 30
0.0
 70
   128
 71
    -2
 72
    21
 73
   -20
 74
     3
  0
VERTEX
  5
25E
330
240
100
AcDbEntity
  8
3D-E-LITE-EQPM
100
AcDbFaceRecord
 10
0.0
 20
0.0
 30
0.0
 70
   128
 71
     1
 72
    22
 73
   -21
 74
     2
  0
VERTEX
  5
25F
330
240
100
AcDbEntity
  8
3D-E-LITE-EQPM
100
AcDbFaceRecord
 10
0.0
 20
0.0
 30
0.0
 70
   128
 71
    -3
 72
    20
 73
   -19
 74
     4
  0
VERTEX
  5
260
330
240
100
AcDbEntity
  8
3D-E-LITE-EQPM
100
AcDbFaceRecord
 10
0.0
 20
0.0
 30
0.0
 70
   128
 71
     6
 72
    -5
 73
    18
 74
   -17
  0
SEQEND
  5
261
330
240
100
AcDbEntity
  8
3D-E-LITE-EQPM
  0
POLYLINE
  5
262
330
75
100
AcDbEntity
  8
3D-E-LITE-EQPM
100
AcDbPolyFaceMesh
 66
     1
 10
0.0
 20
0.0
 30
0.0
 70
    64
 71
    40
 72
    20
1001
REVIT
1002
{
1070
     1
1000
2289
1002
}
1002
{
1070
     4
1000
1601
1002
}
1002
{
1070
     2
1000
-2001120
1002
}
  0
VERTEX
  5
263
330
262
100
AcDbEntity
  8
3D-E-LITE-EQPM
100
AcDbVertex
100
AcDbPolyFaceMeshVertex
 10
4.126371145248412
 20
-0.6399727910757064
 30
0.2500000074505805
 70
   192
  0
VERTEX
  5
264
330
262
100
AcDbEntity
  8
3D-E-LITE-EQPM
100
AcDbVertex
100
AcDbPolyFaceMeshVertex
 10
3.416173338890075
 20
-2.033814132213592
 30
0.2500000074505805
 70
   192
  0
VERTEX
  5
265
330
262
100
AcDbEntity
  8
3D-E-LITE-EQPM
100
AcDbVertex
100
AcDbPolyFaceMeshVertex
 10
2.31001478433609
 20
-3.139972686767578
 30
0.2500000074505805
 70
   192
  0
VERTEX
  5
266
330
262
100
AcDbEntity
  8
3D-E-LITE-EQPM
100
AcDbVertex
100
AcDbPolyFaceMeshVertex
 10
0.9161734879016875
 20
-3.850170493125915
 30
0.2500000074505805
 70
   192
  0
VERTEX
  5
267
330
262
100
AcDbEntity
  8
3D-E-LITE-EQPM
100
AcDbVertex
100
AcDbPolyFaceMeshVertex
 10
-0.6289114952087401
 20
-4.094887733459472
 30
0.2500000074505805
 70
   192
  0
VERTEX
  5
268
330
262
100
AcDbEntity
  8
3D-E-LITE-EQPM
100
AcDbVertex
100
AcDbPolyFaceMeshVertex
 10
-2.1739963889122
 20
-3.850170493125915
 30
0.2500000074505805
 70
   192
  0
VERTEX
  5
269
330
262
100
AcDbEntity
  8
3D-E-LITE-EQPM
100
AcDbVertex
100
AcDbPolyFaceMeshVertex
 10
-3.567837595939636
 20
-3.139972686767578
 30
0.2500000074505805
 70
   192
  0
VERTEX
  5
26A
330
262
100
AcDbEntity
  8
3D-E-LITE-EQPM
100
AcDbVertex
100
AcDbPolyFaceMeshVertex
 10
-4.673996329307555
 20
-2.033814132213592
 30
0.2500000074505805
 70
   192
  0
VERTEX
  5
26B
330
262
100
AcDbEntity
  8
3D-E-LITE-EQPM
100
AcDbVertex
100
AcDbPolyFaceMeshVertex
 10
-5.384194135665893
 20
-0.6399727910757064
 30
0.2500000074505805
 70
   192
  0
VERTEX
  5
26C
330
262
100
AcDbEntity
  8
3D-E-LITE-EQPM
100
AcDbVertex
100
AcDbPolyFaceMeshVertex
 10
-5.62891137599945
 20
0.9051122367382048
 30
0.2500000074505805
 70
   192
  0
VERTEX
  5
26D
330
262
100
AcDbEntity
  8
3D-E-LITE-EQPM
100
AcDbVertex
100
AcDbPolyFaceMeshVertex
 10
-5.384194135665893
 20
2.450197219848632
 30
0.2500000074505805
 70
   192
  0
VERTEX
  5
26E
330
262
100
AcDbEntity
  8
3D-E-LITE-EQPM
100
AcDbVertex
100
AcDbPolyFaceMeshVertex
 10
-4.673996329307555
 20
3.844038605690002
 30
0.2500000074505805
 70
   192
  0
VERTEX
  5
26F
330
262
100
AcDbEntity
  8
3D-E-LITE-EQPM
100
AcDbVertex
100
AcDbPolyFaceMeshVertex
 10
-3.567837595939636
 20
4.950197339057921
 30
0.2500000074505805
 70
   192
  0
VERTEX
  5
270
330
262
100
AcDbEntity
  8
3D-E-LITE-EQPM
100
AcDbVertex
100
AcDbPolyFaceMeshVertex
 10
-2.1739963889122
 20
5.66039478778839
 30
0.2500000074505805
 70
   192
  0
VERTEX
  5
271
330
262
100
AcDbEntity
  8
3D-E-LITE-EQPM
100
AcDbVertex
100
AcDbPolyFaceMeshVertex
 10
-0.6289114952087401
 20
5.905112028121947
 30
0.2500000074505805
 70
   192
  0
VERTEX
  5
272
330
262
100
AcDbEntity
  8
3D-E-LITE-EQPM
100
AcDbVertex
100
AcDbPolyFaceMeshVertex
 10
0.9161734879016875
 20
5.66039478778839
 30
0.2500000074505805
 70
   192
  0
VERTEX
  5
273
330
262
100
AcDbEntity
  8
3D-E-LITE-EQPM
100
AcDbVertex
100
AcDbPolyFaceMeshVertex
 10
2.31001478433609
 20
4.950197339057921
 30
0.2500000074505805
 70
   192
  0
VERTEX
  5
274
330
262
100
AcDbEntity
  8
3D-E-LITE-EQPM
100
AcDbVertex
100
AcDbPolyFaceMeshVertex
 10
3.416173338890075
 20
3.844038605690002
 30
0.2500000074505805
 70
   192
  0
VERTEX
  5
275
330
262
100
AcDbEntity
  8
3D-E-LITE-EQPM
100
AcDbVertex
100
AcDbPolyFaceMeshVertex
 10
4.126371145248412
 20
2.450197219848632
 30
0.2500000074505805
 70
   192
  0
VERTEX
  5
276
330
262
100
AcDbEntity
  8
3D-E-LITE-EQPM
100
AcDbVertex
100
AcDbPolyFaceMeshVertex
 10
4.371088385581969
 20
0.9051122367382048
 30
0.2500000074505805
 70
   192
  0
VERTEX
  5
277
330
262
100
AcDbEntity
  8
3D-E-LITE-EQPM
100
AcDbVertex
100
AcDbPolyFaceMeshVertex
 10
-5.265059709548949
 20
-0.6012636870145797
 30
0.2500000074505805
 70
   192
  0
VERTEX
  5
278
330
262
100
AcDbEntity
  8
3D-E-LITE-EQPM
100
AcDbVertex
100
AcDbPolyFaceMeshVertex
 10
-4.572654604911803
 20
-1.96018499135971
 30
0.2500000074505805
 70
   192
  0
VERTEX
  5
279
330
262
100
AcDbEntity
  8
3D-E-LITE-EQPM
100
AcDbVertex
100
AcDbPolyFaceMeshVertex
 10
-3.494208812713623
 20
-3.038630962371826
 30
0.2500000074505805
 70
   192
  0
VERTEX
  5
27A
330
262
100
AcDbEntity
  8
3D-E-LITE-EQPM
100
AcDbVertex
100
AcDbPolyFaceMeshVertex
 10
-2.135287284851074
 20
-3.731036067008972
 30
0.2500000074505805
 70
   192
  0
VERTEX
  5
27B
330
262
100
AcDbEntity
  8
3D-E-LITE-EQPM
100
AcDbVertex
100
AcDbPolyFaceMeshVertex
 10
-0.6289114952087401
 20
-3.969622492790222
 30
0.2500000074505805
 70
   192
  0
VERTEX
  5
27C
330
262
100
AcDbEntity
  8
3D-E-LITE-EQPM
100
AcDbVertex
100
AcDbPolyFaceMeshVertex
 10
0.8774643838405608
 20
-3.731036067008972
 30
0.2500000074505805
 70
   192
  0
VERTEX
  5
27D
330
262
100
AcDbEntity
  8
3D-E-LITE-EQPM
100
AcDbVertex
100
AcDbPolyFaceMeshVertex
 10
2.236385643482208
 20
-3.038630962371826
 30
0.2500000074505805
 70
   192
  0
VERTEX
  5
27E
330
262
100
AcDbEntity
  8
3D-E-LITE-EQPM
100
AcDbVertex
100
AcDbPolyFaceMeshVertex
 10
3.314831614494323
 20
-1.96018499135971
 30
0.2500000074505805
 70
   192
  0
VERTEX
  5
27F
330
262
100
AcDbEntity
  8
3D-E-LITE-EQPM
100
AcDbVertex
100
AcDbPolyFaceMeshVertex
 10
4.007236719131469
 20
-0.6012636870145797
 30
0.2500000074505805
 70
   192
  0
VERTEX
  5
280
330
262
100
AcDbEntity
  8
3D-E-LITE-EQPM
100
AcDbVertex
100
AcDbPolyFaceMeshVertex
 10
4.245823144912719
 20
0.9051122367382048
 30
0.2500000074505805
 70
   192
  0
VERTEX
  5
281
330
262
100
AcDbEntity
  8
3D-E-LITE-EQPM
100
AcDbVertex
100
AcDbPolyFaceMeshVertex
 10
4.007236719131469
 20
2.411488115787506
 30
0.2500000074505805
 70
   192
  0
VERTEX
  5
282
330
262
100
AcDbEntity
  8
3D-E-LITE-EQPM
100
AcDbVertex
100
AcDbPolyFaceMeshVertex
 10
3.314831614494323
 20
3.77040946483612
 30
0.2500000074505805
 70
   192
  0
VERTEX
  5
283
330
262
100
AcDbEntity
  8
3D-E-LITE-EQPM
100
AcDbVertex
100
AcDbPolyFaceMeshVertex
 10
2.236385643482208
 20
4.848855257034301
 30
0.2500000074505805
 70
   192
  0
VERTEX
  5
284
330
262
100
AcDbEntity
  8
3D-E-LITE-EQPM
100
AcDbVertex
100
AcDbPolyFaceMeshVertex
 10
0.8774643838405608
 20
5.541260361671447
 30
0.2500000074505805
 70
   192
  0
VERTEX
  5
285
330
262
100
AcDbEntity
  8
3D-E-LITE-EQPM
100
AcDbVertex
100
AcDbPolyFaceMeshVertex
 10
-0.6289114952087401
 20
5.779846787452697
 30
0.2500000074505805
 70
   192
  0
VERTEX
  5
286
330
262
100
AcDbEntity
  8
3D-E-LITE-EQPM
100
AcDbVertex
100
AcDbPolyFaceMeshVertex
 10
-2.135287284851074
 20
5.541260361671447
 30
0.2500000074505805
 70
   192
  0
VERTEX
  5
287
330
262
100
AcDbEntity
  8
3D-E-LITE-EQPM
100
AcDbVertex
100
AcDbPolyFaceMeshVertex
 10
-3.494208812713623
 20
4.848855257034301
 30
0.2500000074505805
 70
   192
  0
VERTEX
  5
288
330
262
100
AcDbEntity
  8
3D-E-LITE-EQPM
100
AcDbVertex
100
AcDbPolyFaceMeshVertex
 10
-4.572654604911803
 20
3.77040946483612
 30
0.2500000074505805
 70
   192
  0
VERTEX
  5
289
330
262
100
AcDbEntity
  8
3D-E-LITE-EQPM
100
AcDbVertex
100
AcDbPolyFaceMeshVertex
 10
-5.265059709548949
 20
2.411488115787506
 30
0.2500000074505805
 70
   192
  0
VERTEX
  5
28A
330
262
100
AcDbEntity
  8
3D-E-LITE-EQPM
100
AcDbVertex
100
AcDbPolyFaceMeshVertex
 10
-5.503646135330199
 20
0.9051122367382048
 30
0.2500000074505805
 70
   192
  0
VERTEX
  5
28B
330
262
100
AcDbEntity
  8
3D-E-LITE-EQPM
100
AcDbFaceRecord
 10
0.0
 20
0.0
 30
0.0
 70
   128
 71
    29
 72
   -28
 73
     2
 74
    -1
  0
VERTEX
  5
28C
330
262
100
AcDbEntity
  8
3D-E-LITE-EQPM
100
AcDbFaceRecord
 10
0.0
 20
0.0
 30
0.0
 70
   128
 71
     3
 72
    -2
 73
    28
 74
   -27
  0
VERTEX
  5
28D
330
262
100
AcDbEntity
  8
3D-E-LITE-EQPM
100
AcDbFaceRecord
 10
0.0
 20
0.0
 30
0.0
 70
   128
 71
    30
 72
   -29
 73
     1
 74
   -20
  0
VERTEX
  5
28E
330
262
100
AcDbEntity
  8
3D-E-LITE-EQPM
100
AcDbFaceRecord
 10
0.0
 20
0.0
 30
0.0
 70
   128
 71
    -4
 72
    26
 73
   -25
 74
     5
  0
VERTEX
  5
28F
330
262
100
AcDbEntity
  8
3D-E-LITE-EQPM
100
AcDbFaceRecord
 10
0.0
 20
0.0
 30
0.0
 70
   128
 71
    -3
 72
    27
 73
   -26
 74
     4
  0
VERTEX
  5
290
330
262
100
AcDbEntity
  8
3D-E-LITE-EQPM
100
AcDbFaceRecord
 10
0.0
 20
0.0
 30
0.0
 70
   128
 71
    20
 72
   -19
 73
    31
 74
   -30
  0
VERTEX
  5
291
330
262
100
AcDbEntity
  8
3D-E-LITE-EQPM
100
AcDbFaceRecord
 10
0.0
 20
0.0
 30
0.0
 70
   128
 71
    19
 72
   -18
 73
    32
 74
   -31
  0
VERTEX
  5
292
330
262
100
AcDbEntity
  8
3D-E-LITE-EQPM
100
AcDbFaceRecord
 10
0.0
 20
0.0
 30
0.0
 70
   128
 71
    33
 72
   -32
 73
    18
 74
   -17
  0
VERTEX
  5
293
330
262
100
AcDbEntity
  8
3D-E-LITE-EQPM
100
AcDbFaceRecord
 10
0.0
 20
0.0
 30
0.0
 70
   128
 71
    34
 72
   -33
 73
    17
 74
   -16
  0
VERTEX
  5
294
330
262
100
AcDbEntity
  8
3D-E-LITE-EQPM
100
AcDbFaceRecord
 10
0.0
 20
0.0
 30
0.0
 70
   128
 71
    35
 72
   -34
 73
    16
 74
   -15
  0
VERTEX
  5
295
330
262
100
AcDbEntity
  8
3D-E-LITE-EQPM
100
AcDbFaceRecord
 10
0.0
 20
0.0
 30
0.0
 70
   128
 71
   -24
 72
     6
 73
    -5
 74
    25
  0
VERTEX
  5
296
330
262
100
AcDbEntity
  8
3D-E-LITE-EQPM
100
AcDbFaceRecord
 10
0.0
 20
0.0
 30
0.0
 70
   128
 71
    -6
 72
    24
 73
   -23
 74
     7
  0
VERTEX
  5
297
330
262
100
AcDbEntity
  8
3D-E-LITE-EQPM
100
AcDbFaceRecord
 10
0.0
 20
0.0
 30
0.0
 70
   128
 71
    -7
 72
    23
 73
   -22
 74
     8
  0
VERTEX
  5
298
330
262
100
AcDbEntity
  8
3D-E-LITE-EQPM
100
AcDbFaceRecord
 10
0.0
 20
0.0
 30
0.0
 70
   128
 71
    -8
 72
    22
 73
   -21
 74
     9
  0
VERTEX
  5
299
330
262
100
AcDbEntity
  8
3D-E-LITE-EQPM
100
AcDbFaceRecord
 10
0.0
 20
0.0
 30
0.0
 70
   128
 71
    -9
 72
    21
 73
   -40
 74
    10
  0
VERTEX
  5
29A
330
262
100
AcDbEntity
  8
3D-E-LITE-EQPM
100
AcDbFaceRecord
 10
0.0
 20
0.0
 30
0.0
 70
   128
 71
    14
 72
   -13
 73
    37
 74
   -36
  0
VERTEX
  5
29B
330
262
100
AcDbEntity
  8
3D-E-LITE-EQPM
100
AcDbFaceRecord
 10
0.0
 20
0.0
 30
0.0
 70
   128
 71
   -37
 72
    13
 73
   -12
 74
    38
  0
VERTEX
  5
29C
330
262
100
AcDbEntity
  8
3D-E-LITE-EQPM
100
AcDbFaceRecord
 10
0.0
 20
0.0
 30
0.0
 70
   128
 71
    15
 72
   -14
 73
    36
 74
   -35
  0
VERTEX
  5
29D
330
262
100
AcDbEntity
  8
3D-E-LITE-EQPM
100
AcDbFaceRecord
 10
0.0
 20
0.0
 30
0.0
 70
   128
 71
   -39
 72
    11
 73
   -10
 74
    40
  0
VERTEX
  5
29E
330
262
100
AcDbEntity
  8
3D-E-LITE-EQPM
100
AcDbFaceRecord
 10
0.0
 20
0.0
 30
0.0
 70
   128
 71
   -38
 72
    12
 73
   -11
 74
    39
  0
SEQEND
  5
29F
330
262
100
AcDbEntity
  8
3D-E-LITE-EQPM
  0
POLYLINE
  5
2A0
330
75
100
AcDbEntity
  8
3D-E-LITE-EQPM
100
AcDbPolyFaceMesh
 66
     1
 10
0.0
 20
0.0
 30
0.0
 70
    64
 71
    22
 72
    10
1001
REVIT
1002
{
1070
     1
1000
2289
1002
}
1002
{
1070
     4
1000
1601
1002
}
1002
{
1070
     2
1000
-2001120
1002
}
  0
VERTEX
  5
2A1
330
2A0
100
AcDbEntity
  8
3D-E-LITE-EQPM
100
AcDbVertex
100
AcDbPolyFaceMeshVertex
 10
4.371088385581969
 20
0.9051122367382048
 30
0.0000000000000271
 70
   192
  0
VERTEX
  5
2A2
330
2A0
100
AcDbEntity
  8
3D-E-LITE-EQPM
100
AcDbVertex
100
AcDbPolyFaceMeshVertex
 10
4.126371145248412
 20
2.450197219848632
 30
0.0000000000000271
 70
   192
  0
VERTEX
  5
2A3
330
2A0
100
AcDbEntity
  8
3D-E-LITE-EQPM
100
AcDbVertex
100
AcDbPolyFaceMeshVertex
 10
3.416173338890075
 20
3.844038605690002
 30
0.0000000000000271
 70
   192
  0
VERTEX
  5
2A4
330
2A0
100
AcDbEntity
  8
3D-E-LITE-EQPM
100
AcDbVertex
100
AcDbPolyFaceMeshVertex
 10
2.31001478433609
 20
4.950197339057921
 30
0.0000000000000271
 70
   192
  0
VERTEX
  5
2A5
330
2A0
100
AcDbEntity
  8
3D-E-LITE-EQPM
100
AcDbVertex
100
AcDbPolyFaceMeshVertex
 10
0.9161734879016875
 20
5.66039478778839
 30
0.0000000000000271
 70
   192
  0
VERTEX
  5
2A6
330
2A0
100
AcDbEntity
  8
3D-E-LITE-EQPM
100
AcDbVertex
100
AcDbPolyFaceMeshVertex
 10
-0.6289114952087401
 20
5.905112028121947
 30
0.0000000000000271
 70
   192
  0
VERTEX
  5
2A7
330
2A0
100
AcDbEntity
  8
3D-E-LITE-EQPM
100
AcDbVertex
100
AcDbPolyFaceMeshVertex
 10
-2.1739963889122
 20
5.66039478778839
 30
0.0000000000000271
 70
   192
  0
VERTEX
  5
2A8
330
2A0
100
AcDbEntity
  8
3D-E-LITE-EQPM
100
AcDbVertex
100
AcDbPolyFaceMeshVertex
 10
-3.567837595939636
 20
4.950197339057921
 30
0.0000000000000271
 70
   192
  0
VERTEX
  5
2A9
330
2A0
100
AcDbEntity
  8
3D-E-LITE-EQPM
100
AcDbVertex
100
AcDbPolyFaceMeshVertex
 10
-4.673996329307555
 20
3.844038605690002
 30
0.0000000000000271
 70
   192
  0
VERTEX
  5
2AA
330
2A0
100
AcDbEntity
  8
3D-E-LITE-EQPM
100
AcDbVertex
100
AcDbPolyFaceMeshVertex
 10
-5.384194135665893
 20
2.450197219848632
 30
0.0000000000000271
 70
   192
  0
VERTEX
  5
2AB
330
2A0
100
AcDbEntity
  8
3D-E-LITE-EQPM
100
AcDbVertex
100
AcDbPolyFaceMeshVertex
 10
-5.62891137599945
 20
0.9051122367382048
 30
0.0000000000000271
 70
   192
  0
VERTEX
  5
2AC
330
2A0
100
AcDbEntity
  8
3D-E-LITE-EQPM
100
AcDbVertex
100
AcDbPolyFaceMeshVertex
 10
-5.62891137599945
 20
0.9051122367382048
 30
0.2500000074505805
 70
   192
  0
VERTEX
  5
2AD
330
2A0
100
AcDbEntity
  8
3D-E-LITE-EQPM
100
AcDbVertex
100
AcDbPolyFaceMeshVertex
 10
-5.384194135665893
 20
2.450197219848632
 30
0.2500000074505805
 70
   192
  0
VERTEX
  5
2AE
330
2A0
100
AcDbEntity
  8
3D-E-LITE-EQPM
100
AcDbVertex
100
AcDbPolyFaceMeshVertex
 10
-4.673996329307555
 20
3.844038605690002
 30
0.2500000074505805
 70
   192
  0
VERTEX
  5
2AF
330
2A0
100
AcDbEntity
  8
3D-E-LITE-EQPM
100
AcDbVertex
100
AcDbPolyFaceMeshVertex
 10
-3.567837595939636
 20
4.950197339057921
 30
0.2500000074505805
 70
   192
  0
VERTEX
  5
2B0
330
2A0
100
AcDbEntity
  8
3D-E-LITE-EQPM
100
AcDbVertex
100
AcDbPolyFaceMeshVertex
 10
-2.1739963889122
 20
5.66039478778839
 30
0.2500000074505805
 70
   192
  0
VERTEX
  5
2B1
330
2A0
100
AcDbEntity
  8
3D-E-LITE-EQPM
100
AcDbVertex
100
AcDbPolyFaceMeshVertex
 10
-0.6289114952087401
 20
5.905112028121947
 30
0.2500000074505805
 70
   192
  0
VERTEX
  5
2B2
330
2A0
100
AcDbEntity
  8
3D-E-LITE-EQPM
100
AcDbVertex
100
AcDbPolyFaceMeshVertex
 10
0.9161734879016875
 20
5.66039478778839
 30
0.2500000074505805
 70
   192
  0
VERTEX
  5
2B3
330
2A0
100
AcDbEntity
  8
3D-E-LITE-EQPM
100
AcDbVertex
100
AcDbPolyFaceMeshVertex
 10
2.31001478433609
 20
4.950197339057921
 30
0.2500000074505805
 70
   192
  0
VERTEX
  5
2B4
330
2A0
100
AcDbEntity
  8
3D-E-LITE-EQPM
100
AcDbVertex
100
AcDbPolyFaceMeshVertex
 10
3.416173338890075
 20
3.844038605690002
 30
0.2500000074505805
 70
   192
  0
VERTEX
  5
2B5
330
2A0
100
AcDbEntity
  8
3D-E-LITE-EQPM
100
AcDbVertex
100
AcDbPolyFaceMeshVertex
 10
4.126371145248412
 20
2.450197219848632
 30
0.2500000074505805
 70
   192
  0
VERTEX
  5
2B6
330
2A0
100
AcDbEntity
  8
3D-E-LITE-EQPM
100
AcDbVertex
100
AcDbPolyFaceMeshVertex
 10
4.371088385581969
 20
0.9051122367382048
 30
0.2500000074505805
 70
   192
  0
VERTEX
  5
2B7
330
2A0
100
AcDbEntity
  8
3D-E-LITE-EQPM
100
AcDbFaceRecord
 10
0.0
 20
0.0
 30
0.0
 70
   128
 71
    11
 72
    12
 73
   -13
 74
    10
  0
VERTEX
  5
2B8
330
2A0
100
AcDbEntity
  8
3D-E-LITE-EQPM
100
AcDbFaceRecord
 10
0.0
 20
0.0
 30
0.0
 70
   128
 71
    -9
 72
    14
 73
   -15
 74
     8
  0
VERTEX
  5
2B9
330
2A0
100
AcDbEntity
  8
3D-E-LITE-EQPM
100
AcDbFaceRecord
 10
0.0
 20
0.0
 30
0.0
 70
   128
 71
   -10
 72
    13
 73
   -14
 74
     9
  0
VERTEX
  5
2BA
330
2A0
100
AcDbEntity
  8
3D-E-LITE-EQPM
100
AcDbFaceRecord
 10
0.0
 20
0.0
 30
0.0
 70
   128
 71
    -8
 72
    15
 73
   -16
 74
     7
  0
VERTEX
  5
2BB
330
2A0
100
AcDbEntity
  8
3D-E-LITE-EQPM
100
AcDbFaceRecord
 10
0.0
 20
0.0
 30
0.0
 70
   128
 71
   -17
 72
     6
 73
    -7
 74
    16
  0
VERTEX
  5
2BC
330
2A0
100
AcDbEntity
  8
3D-E-LITE-EQPM
100
AcDbFaceRecord
 10
0.0
 20
0.0
 30
0.0
 70
   128
 71
    -5
 72
    18
 73
   -19
 74
     4
  0
VERTEX
  5
2BD
330
2A0
100
AcDbEntity
  8
3D-E-LITE-EQPM
100
AcDbFaceRecord
 10
0.0
 20
0.0
 30
0.0
 70
   128
 71
    20
 72
   -21
 73
     2
 74
    -3
  0
VERTEX
  5
2BE
330
2A0
100
AcDbEntity
  8
3D-E-LITE-EQPM
100
AcDbFaceRecord
 10
0.0
 20
0.0
 30
0.0
 70
   128
 71
    21
 72
    22
 73
     1
 74
    -2
  0
VERTEX
  5
2BF
330
2A0
100
AcDbEntity
  8
3D-E-LITE-EQPM
100
AcDbFaceRecord
 10
0.0
 20
0.0
 30
0.0
 70
   128
 71
    19
 72
   -20
 73
     3
 74
    -4
  0
VERTEX
  5
2C0
330
2A0
100
AcDbEntity
  8
3D-E-LITE-EQPM
100
AcDbFaceRecord
 10
0.0
 20
0.0
 30
0.0
 70
   128
 71
   -18
 72
     5
 73
    -6
 74
    17
  0
SEQEND
  5
2C1
330
2A0
100
AcDbEntity
  8
3D-E-LITE-EQPM
  0
POLYLINE
  5
2C2
330
75
100
AcDbEntity
  8
3D-E-LITE-EQPM
100
AcDbPolyFaceMesh
 66
     1
 10
0.0
 20
0.0
 30
0.0
 70
    64
 71
    42
 72
    22
1001
REVIT
1002
{
1070
     1
1000
2289
1002
}
1002
{
1070
     4
1000
1601
1002
}
1002
{
1070
     2
1000
-2001120
1002
}
  0
VERTEX
  5
2C3
330
2C2
100
AcDbEntity
  8
3D-E-LITE-EQPM
100
AcDbVertex
100
AcDbPolyFaceMeshVertex
 10
5.128046393394469
 20
-0.7852831184864043
 30
0.0000000000000271
 70
   192
  0
VERTEX
  5
2C4
330
2C2
100
AcDbEntity
  8
3D-E-LITE-EQPM
100
AcDbVertex
100
AcDbPolyFaceMeshVertex
 10
4.418609619140624
 20
-2.338732659816741
 30
0.0000000000000271
 70
   192
  0
VERTEX
  5
2C5
330
2C2
100
AcDbEntity
  8
3D-E-LITE-EQPM
100
AcDbVertex
100
AcDbPolyFaceMeshVertex
 10
3.30025291442871
 20
-3.629385352134704
 30
0.0000000000000271
 70
   192
  0
VERTEX
  5
2C6
330
2C2
100
AcDbEntity
  8
3D-E-LITE-EQPM
100
AcDbVertex
100
AcDbPolyFaceMeshVertex
 10
1.863578617572784
 20
-4.552679657936095
 30
0.0000000000000271
 70
   192
  0
VERTEX
  5
2C7
330
2C2
100
AcDbEntity
  8
3D-E-LITE-EQPM
100
AcDbVertex
100
AcDbPolyFaceMeshVertex
 10
0.224977545440197
 20
-5.033816456794738
 30
0.0000000000000271
 70
   192
  0
VERTEX
  5
2C8
330
2C2
100
AcDbEntity
  8
3D-E-LITE-EQPM
100
AcDbVertex
100
AcDbPolyFaceMeshVertex
 10
-1.482800513505935
 20
-5.033816456794738
 30
0.0000000000000271
 70
   192
  0
VERTEX
  5
2C9
330
2C2
100
AcDbEntity
  8
3D-E-LITE-EQPM
100
AcDbVertex
100
AcDbPolyFaceMeshVertex
 10
-3.12140142917633
 20
-4.552679657936095
 30
0.0000000000000271
 70
   192
  0
VERTEX
  5
2CA
330
2C2
100
AcDbEntity
  8
3D-E-LITE-EQPM
100
AcDbVertex
100
AcDbPolyFaceMeshVertex
 10
-4.558075904846191
 20
-3.629385352134704
 30
0.0000000000000271
 70
   192
  0
VERTEX
  5
2CB
330
2C2
100
AcDbEntity
  8
3D-E-LITE-EQPM
100
AcDbVertex
100
AcDbPolyFaceMeshVertex
 10
-5.676432609558105
 20
-2.338732659816741
 30
0.0000000000000271
 70
   192
  0
VERTEX
  5
2CC
330
2C2
100
AcDbEntity
  8
3D-E-LITE-EQPM
100
AcDbVertex
100
AcDbPolyFaceMeshVertex
 10
-6.385869026184081
 20
-0.7852831184864043
 30
0.0000000000000271
 70
   192
  0
VERTEX
  5
2CD
330
2C2
100
AcDbEntity
  8
3D-E-LITE-EQPM
100
AcDbVertex
100
AcDbPolyFaceMeshVertex
 10
-6.628911495208739
 20
0.9051122367382048
 30
0.0000000000000271
 70
   192
  0
VERTEX
  5
2CE
330
2C2
100
AcDbEntity
  8
3D-E-LITE-EQPM
100
AcDbVertex
100
AcDbPolyFaceMeshVertex
 10
-6.385869026184081
 20
2.595507502555847
 30
0.0000000000000271
 70
   192
  0
VERTEX
  5
2CF
330
2C2
100
AcDbEntity
  8
3D-E-LITE-EQPM
100
AcDbVertex
100
AcDbPolyFaceMeshVertex
 10
-5.676432609558105
 20
4.148957133293151
 30
0.0000000000000271
 70
   192
  0
VERTEX
  5
2D0
330
2C2
100
AcDbEntity
  8
3D-E-LITE-EQPM
100
AcDbVertex
100
AcDbPolyFaceMeshVertex
 10
-4.558075904846191
 20
5.439609646797179
 30
0.0000000000000271
 70
   192
  0
VERTEX
  5
2D1
330
2C2
100
AcDbEntity
  8
3D-E-LITE-EQPM
100
AcDbVertex
100
AcDbPolyFaceMeshVertex
 10
-3.12140142917633
 20
6.36290431022644
 30
0.0000000000000271
 70
   192
  0
VERTEX
  5
2D2
330
2C2
100
AcDbEntity
  8
3D-E-LITE-EQPM
100
AcDbVertex
100
AcDbPolyFaceMeshVertex
 10
-1.482800513505935
 20
6.844041109085082
 30
0.0000000000000271
 70
   192
  0
VERTEX
  5
2D3
330
2C2
100
AcDbEntity
  8
3D-E-LITE-EQPM
100
AcDbVertex
100
AcDbPolyFaceMeshVertex
 10
0.224977545440197
 20
6.844041109085082
 30
0.0000000000000271
 70
   192
  0
VERTEX
  5
2D4
330
2C2
100
AcDbEntity
  8
3D-E-LITE-EQPM
100
AcDbVertex
100
AcDbPolyFaceMeshVertex
 10
1.863578617572784
 20
6.36290431022644
 30
0.0000000000000271
 70
   192
  0
VERTEX
  5
2D5
330
2C2
100
AcDbEntity
  8
3D-E-LITE-EQPM
100
AcDbVertex
100
AcDbPolyFaceMeshVertex
 10
3.30025291442871
 20
5.439609646797179
 30
0.0000000000000271
 70
   192
  0
VERTEX
  5
2D6
330
2C2
100
AcDbEntity
  8
3D-E-LITE-EQPM
100
AcDbVertex
100
AcDbPolyFaceMeshVertex
 10
4.418609619140624
 20
4.148957133293151
 30
0.0000000000000271
 70
   192
  0
VERTEX
  5
2D7
330
2C2
100
AcDbEntity
  8
3D-E-LITE-EQPM
100
AcDbVertex
100
AcDbPolyFaceMeshVertex
 10
5.128046393394469
 20
2.595507502555847
 30
0.0000000000000271
 70
   192
  0
VERTEX
  5
2D8
330
2C2
100
AcDbEntity
  8
3D-E-LITE-EQPM
100
AcDbVertex
100
AcDbPolyFaceMeshVertex
 10
5.371088504791259
 20
0.9051122367382048
 30
0.0000000000000271
 70
   192
  0
VERTEX
  5
2D9
330
2C2
100
AcDbEntity
  8
3D-E-LITE-EQPM
100
AcDbVertex
100
AcDbPolyFaceMeshVertex
 10
-5.384194135665893
 20
-0.6399727910757064
 30
0.0000000000000271
 70
   192
  0
VERTEX
  5
2DA
330
2C2
100
AcDbEntity
  8
3D-E-LITE-EQPM
100
AcDbVertex
100
AcDbPolyFaceMeshVertex
 10
-4.673996329307555
 20
-2.033814132213592
 30
0.0000000000000271
 70
   192
  0
VERTEX
  5
2DB
330
2C2
100
AcDbEntity
  8
3D-E-LITE-EQPM
100
AcDbVertex
100
AcDbPolyFaceMeshVertex
 10
-3.567837595939636
 20
-3.139972686767578
 30
0.0000000000000271
 70
   192
  0
VERTEX
  5
2DC
330
2C2
100
AcDbEntity
  8
3D-E-LITE-EQPM
100
AcDbVertex
100
AcDbPolyFaceMeshVertex
 10
-2.1739963889122
 20
-3.850170493125915
 30
0.0000000000000271
 70
   192
  0
VERTEX
  5
2DD
330
2C2
100
AcDbEntity
  8
3D-E-LITE-EQPM
100
AcDbVertex
100
AcDbPolyFaceMeshVertex
 10
-0.6289114952087401
 20
-4.094887733459472
 30
0.0000000000000271
 70
   192
  0
VERTEX
  5
2DE
330
2C2
100
AcDbEntity
  8
3D-E-LITE-EQPM
100
AcDbVertex
100
AcDbPolyFaceMeshVertex
 10
0.9161734879016875
 20
-3.850170493125915
 30
0.0000000000000271
 70
   192
  0
VERTEX
  5
2DF
330
2C2
100
AcDbEntity
  8
3D-E-LITE-EQPM
100
AcDbVertex
100
AcDbPolyFaceMeshVertex
 10
2.31001478433609
 20
-3.139972686767578
 30
0.0000000000000271
 70
   192
  0
VERTEX
  5
2E0
330
2C2
100
AcDbEntity
  8
3D-E-LITE-EQPM
100
AcDbVertex
100
AcDbPolyFaceMeshVertex
 10
3.416173338890075
 20
-2.033814132213592
 30
0.0000000000000271
 70
   192
  0
VERTEX
  5
2E1
330
2C2
100
AcDbEntity
  8
3D-E-LITE-EQPM
100
AcDbVertex
100
AcDbPolyFaceMeshVertex
 10
4.126371145248412
 20
-0.6399727910757064
 30
0.0000000000000271
 70
   192
  0
VERTEX
  5
2E2
330
2C2
100
AcDbEntity
  8
3D-E-LITE-EQPM
100
AcDbVertex
100
AcDbPolyFaceMeshVertex
 10
4.371088385581969
 20
0.9051122367382048
 30
0.0000000000000271
 70
   192
  0
VERTEX
  5
2E3
330
2C2
100
AcDbEntity
  8
3D-E-LITE-EQPM
100
AcDbVertex
100
AcDbPolyFaceMeshVertex
 10
4.126371145248412
 20
2.450197219848632
 30
0.0000000000000271
 70
   192
  0
VERTEX
  5
2E4
330
2C2
100
AcDbEntity
  8
3D-E-LITE-EQPM
100
AcDbVertex
100
AcDbPolyFaceMeshVertex
 10
3.416173338890075
 20
3.844038605690002
 30
0.0000000000000271
 70
   192
  0
VERTEX
  5
2E5
330
2C2
100
AcDbEntity
  8
3D-E-LITE-EQPM
100
AcDbVertex
100
AcDbPolyFaceMeshVertex
 10
2.31001478433609
 20
4.950197339057921
 30
0.0000000000000271
 70
   192
  0
VERTEX
  5
2E6
330
2C2
100
AcDbEntity
  8
3D-E-LITE-EQPM
100
AcDbVertex
100
AcDbPolyFaceMeshVertex
 10
0.9161734879016875
 20
5.66039478778839
 30
0.0000000000000271
 70
   192
  0
VERTEX
  5
2E7
330
2C2
100
AcDbEntity
  8
3D-E-LITE-EQPM
100
AcDbVertex
100
AcDbPolyFaceMeshVertex
 10
-0.6289114952087401
 20
5.905112028121947
 30
0.0000000000000271
 70
   192
  0
VERTEX
  5
2E8
330
2C2
100
AcDbEntity
  8
3D-E-LITE-EQPM
100
AcDbVertex
100
AcDbPolyFaceMeshVertex
 10
-2.1739963889122
 20
5.66039478778839
 30
0.0000000000000271
 70
   192
  0
VERTEX
  5
2E9
330
2C2
100
AcDbEntity
  8
3D-E-LITE-EQPM
100
AcDbVertex
100
AcDbPolyFaceMeshVertex
 10
-3.567837595939636
 20
4.950197339057921
 30
0.0000000000000271
 70
   192
  0
VERTEX
  5
2EA
330
2C2
100
AcDbEntity
  8
3D-E-LITE-EQPM
100
AcDbVertex
100
AcDbPolyFaceMeshVertex
 10
-4.673996329307555
 20
3.844038605690002
 30
0.0000000000000271
 70
   192
  0
VERTEX
  5
2EB
330
2C2
100
AcDbEntity
  8
3D-E-LITE-EQPM
100
AcDbVertex
100
AcDbPolyFaceMeshVertex
 10
-5.384194135665893
 20
2.450197219848632
 30
0.0000000000000271
 70
   192
  0
VERTEX
  5
2EC
330
2C2
100
AcDbEntity
  8
3D-E-LITE-EQPM
100
AcDbVertex
100
AcDbPolyFaceMeshVertex
 10
-5.62891137599945
 20
0.9051122367382048
 30
0.0000000000000271
 70
   192
  0
VERTEX
  5
2ED
330
2C2
100
AcDbEntity
  8
3D-E-LITE-EQPM
100
AcDbFaceRecord
 10
0.0
 20
0.0
 30
0.0
 70
   128
 71
   -30
 72
     3
 73
    -2
 74
    31
  0
VERTEX
  5
2EE
330
2C2
100
AcDbEntity
  8
3D-E-LITE-EQPM
100
AcDbFaceRecord
 10
0.0
 20
0.0
 30
0.0
 70
   128
 71
   -31
 72
     2
 73
    -1
 74
    32
  0
VERTEX
  5
2EF
330
2C2
100
AcDbEntity
  8
3D-E-LITE-EQPM
100
AcDbFaceRecord
 10
0.0
 20
0.0
 30
0.0
 70
   128
 71
    -3
 72
    30
 73
   -29
 74
     4
  0
VERTEX
  5
2F0
330
2C2
100
AcDbEntity
  8
3D-E-LITE-EQPM
100
AcDbFaceRecord
 10
0.0
 20
0.0
 30
0.0
 70
   128
 71
   -28
 72
     5
 73
    -4
 74
    29
  0
VERTEX
  5
2F1
330
2C2
100
AcDbEntity
  8
3D-E-LITE-EQPM
100
AcDbFaceRecord
 10
0.0
 20
0.0
 30
0.0
 70
   128
 71
    -5
 72
    28
 73
   -27
 74
     6
  0
VERTEX
  5
2F2
330
2C2
100
AcDbEntity
  8
3D-E-LITE-EQPM
100
AcDbFaceRecord
 10
0.0
 20
0.0
 30
0.0
 70
   128
 71
    22
 72
   -21
 73
   -32
 74
     1
  0
VERTEX
  5
2F3
330
2C2
100
AcDbEntity
  8
3D-E-LITE-EQPM
100
AcDbFaceRecord
 10
0.0
 20
0.0
 30
0.0
 70
   128
 71
    21
 72
   -20
 73
    33
 74
   -32
  0
VERTEX
  5
2F4
330
2C2
100
AcDbEntity
  8
3D-E-LITE-EQPM
100
AcDbFaceRecord
 10
0.0
 20
0.0
 30
0.0
 70
   128
 71
    34
 72
   -33
 73
    20
 74
   -19
  0
VERTEX
  5
2F5
330
2C2
100
AcDbEntity
  8
3D-E-LITE-EQPM
100
AcDbFaceRecord
 10
0.0
 20
0.0
 30
0.0
 70
   128
 71
    35
 72
   -34
 73
    19
 74
   -18
  0
VERTEX
  5
2F6
330
2C2
100
AcDbEntity
  8
3D-E-LITE-EQPM
100
AcDbFaceRecord
 10
0.0
 20
0.0
 30
0.0
 70
   128
 71
    18
 72
   -17
 73
    36
 74
   -35
  0
VERTEX
  5
2F7
330
2C2
100
AcDbEntity
  8
3D-E-LITE-EQPM
100
AcDbFaceRecord
 10
0.0
 20
0.0
 30
0.0
 70
   128
 71
    37
 72
   -36
 73
    17
 74
   -16
  0
VERTEX
  5
2F8
330
2C2
100
AcDbEntity
  8
3D-E-LITE-EQPM
100
AcDbFaceRecord
 10
0.0
 20
0.0
 30
0.0
 70
   128
 71
     7
 72
    -6
 73
    26
 74
   -25
  0
VERTEX
  5
2F9
330
2C2
100
AcDbEntity
  8
3D-E-LITE-EQPM
100
AcDbFaceRecord
 10
0.0
 20
0.0
 30
0.0
 70
   128
 71
     8
 72
    -7
 73
    25
 74
   -24
  0
VERTEX
  5
2FA
330
2C2
100
AcDbEntity
  8
3D-E-LITE-EQPM
100
AcDbFaceRecord
 10
0.0
 20
0.0
 30
0.0
 70
   128
 71
    24
 72
   -23
 73
     9
 74
    -8
  0
VERTEX
  5
2FB
330
2C2
100
AcDbEntity
  8
3D-E-LITE-EQPM
100
AcDbFaceRecord
 10
0.0
 20
0.0
 30
0.0
 70
   128
 71
    23
 72
   -42
 73
    10
 74
    -9
  0
VERTEX
  5
2FC
330
2C2
100
AcDbEntity
  8
3D-E-LITE-EQPM
100
AcDbFaceRecord
 10
0.0
 20
0.0
 30
0.0
 70
   128
 71
    11
 72
   -10
 73
   -42
 74
    12
  0
VERTEX
  5
2FD
330
2C2
100
AcDbEntity
  8
3D-E-LITE-EQPM
100
AcDbFaceRecord
 10
0.0
 20
0.0
 30
0.0
 70
   128
 71
   -15
 72
    39
 73
   -38
 74
    16
  0
VERTEX
  5
2FE
330
2C2
100
AcDbEntity
  8
3D-E-LITE-EQPM
100
AcDbFaceRecord
 10
0.0
 20
0.0
 30
0.0
 70
   128
 71
   -37
 72
   -16
 73
    38
  0
VERTEX
  5
2FF
330
2C2
100
AcDbEntity
  8
3D-E-LITE-EQPM
100
AcDbFaceRecord
 10
0.0
 20
0.0
 30
0.0
 70
   128
 71
   -39
 72
    15
 73
   -14
 74
    40
  0
VERTEX
  5
300
330
2C2
100
AcDbEntity
  8
3D-E-LITE-EQPM
100
AcDbFaceRecord
 10
0.0
 20
0.0
 30
0.0
 70
   128
 71
   -12
 72
    42
 73
   -41
 74
    13
  0
VERTEX
  5
301
330
2C2
100
AcDbEntity
  8
3D-E-LITE-EQPM
100
AcDbFaceRecord
 10
0.0
 20
0.0
 30
0.0
 70
   128
 71
   -40
 72
    14
 73
   -13
 74
    41
  0
VERTEX
  5
302
330
2C2
100
AcDbEntity
  8
3D-E-LITE-EQPM
100
AcDbFaceRecord
 10
0.0
 20
0.0
 30
0.0
 70
   128
 71
    -6
 72
    27
 73
   -26
  0
SEQEND
  5
303
330
2C2
100
AcDbEntity
  8
3D-E-LITE-EQPM
  0
POLYLINE
  5
304
330
75
100
AcDbEntity
  8
3D-E-LITE-EQPM
100
AcDbPolyFaceMesh
 66
     1
 10
0.0
 20
0.0
 30
0.0
 70
    64
 71
    24
 72
    12
1001
REVIT
1002
{
1070
     1
1000
2318
1002
}
1002
{
1070
     4
1000
1597
1002
}
1002
{
1070
     2
1000
-2001120
1002
}
  0
VERTEX
  5
305
330
304
100
AcDbEntity
  8
3D-E-LITE-EQPM
100
AcDbVertex
100
AcDbPolyFaceMeshVertex
 10
-5.62891137599945
 20
0.9051122367382048
 30
0.2500000074505805
 70
   192
  0
VERTEX
  5
306
330
304
100
AcDbEntity
  8
3D-E-LITE-EQPM
100
AcDbVertex
100
AcDbPolyFaceMeshVertex
 10
-5.458540678024291
 20
-0.3889830261468887
 30
0.2500000074505805
 70
   192
  0
VERTEX
  5
307
330
304
100
AcDbEntity
  8
3D-E-LITE-EQPM
100
AcDbVertex
100
AcDbPolyFaceMeshVertex
 10
-4.959038615226745
 20
-1.594887793064117
 30
0.2500000074505805
 70
   192
  0
VERTEX
  5
308
330
304
100
AcDbEntity
  8
3D-E-LITE-EQPM
100
AcDbVertex
100
AcDbPolyFaceMeshVertex
 10
-4.164445281028747
 20
-2.630421638488769
 30
0.2500000074505805
 70
   192
  0
VERTEX
  5
309
330
304
100
AcDbEntity
  8
3D-E-LITE-EQPM
100
AcDbVertex
100
AcDbPolyFaceMeshVertex
 10
-3.128911614418029
 20
-3.425014972686767
 30
0.2500000074505805
 70
   192
  0
VERTEX
  5
30A
330
304
100
AcDbEntity
  8
3D-E-LITE-EQPM
100
AcDbVertex
100
AcDbPolyFaceMeshVertex
 10
-1.92300671339035
 20
-3.924517035484314
 30
0.2500000074505805
 70
   192
  0
VERTEX
  5
30B
330
304
100
AcDbEntity
  8
3D-E-LITE-EQPM
100
AcDbVertex
100
AcDbPolyFaceMeshVertex
 10
-0.6289114952087401
 20
-4.094887733459472
 30
0.2500000074505805
 70
   192
  0
VERTEX
  5
30C
330
304
100
AcDbEntity
  8
3D-E-LITE-EQPM
100
AcDbVertex
100
AcDbPolyFaceMeshVertex
 10
0.6651837676763533
 20
-3.924517035484314
 30
0.2500000074505805
 70
   192
  0
VERTEX
  5
30D
330
304
100
AcDbEntity
  8
3D-E-LITE-EQPM
100
AcDbVertex
100
AcDbPolyFaceMeshVertex
 10
1.871088445186615
 20
-3.425014972686767
 30
0.2500000074505805
 70
   192
  0
VERTEX
  5
30E
330
304
100
AcDbEntity
  8
3D-E-LITE-EQPM
100
AcDbVertex
100
AcDbPolyFaceMeshVertex
 10
2.906622469425201
 20
-2.630421638488769
 30
0.2500000074505805
 70
   192
  0
VERTEX
  5
30F
330
304
100
AcDbEntity
  8
3D-E-LITE-EQPM
100
AcDbVertex
100
AcDbPolyFaceMeshVertex
 10
3.701215624809265
 20
-1.594887793064117
 30
0.2500000074505805
 70
   192
  0
VERTEX
  5
310
330
304
100
AcDbEntity
  8
3D-E-LITE-EQPM
100
AcDbVertex
100
AcDbPolyFaceMeshVertex
 10
4.200717687606811
 20
-0.3889830261468887
 30
0.2500000074505805
 70
   192
  0
VERTEX
  5
311
330
304
100
AcDbEntity
  8
3D-E-LITE-EQPM
100
AcDbVertex
100
AcDbPolyFaceMeshVertex
 10
4.371088385581969
 20
0.9051122367382048
 30
0.2500000074505805
 70
   192
  0
VERTEX
  5
312
330
304
100
AcDbEntity
  8
3D-E-LITE-EQPM
100
AcDbVertex
100
AcDbPolyFaceMeshVertex
 10
4.200717687606811
 20
2.199207365512847
 30
0.2500000074505805
 70
   192
  0
VERTEX
  5
313
330
304
100
AcDbEntity
  8
3D-E-LITE-EQPM
100
AcDbVertex
100
AcDbPolyFaceMeshVertex
 10
3.701215624809265
 20
3.405112266540527
 30
0.2500000074505805
 70
   192
  0
VERTEX
  5
314
330
304
100
AcDbEntity
  8
3D-E-LITE-EQPM
100
AcDbVertex
100
AcDbPolyFaceMeshVertex
 10
2.906622469425201
 20
4.440645933151244
 30
0.2500000074505805
 70
   192
  0
VERTEX
  5
315
330
304
100
AcDbEntity
  8
3D-E-LITE-EQPM
100
AcDbVertex
100
AcDbPolyFaceMeshVertex
 10
1.871088445186615
 20
5.235239267349242
 30
0.2500000074505805
 70
   192
  0
VERTEX
  5
316
330
304
100
AcDbEntity
  8
3D-E-LITE-EQPM
100
AcDbVertex
100
AcDbPolyFaceMeshVertex
 10
0.6651837676763533
 20
5.734741330146789
 30
0.2500000074505805
 70
   192
  0
VERTEX
  5
317
330
304
100
AcDbEntity
  8
3D-E-LITE-EQPM
100
AcDbVertex
100
AcDbPolyFaceMeshVertex
 10
-0.6289114952087401
 20
5.905112028121947
 30
0.2500000074505805
 70
   192
  0
VERTEX
  5
318
330
304
100
AcDbEntity
  8
3D-E-LITE-EQPM
100
AcDbVertex
100
AcDbPolyFaceMeshVertex
 10
-1.92300671339035
 20
5.734741330146789
 30
0.2500000074505805
 70
   192
  0
VERTEX
  5
319
330
304
100
AcDbEntity
  8
3D-E-LITE-EQPM
100
AcDbVertex
100
AcDbPolyFaceMeshVertex
 10
-3.128911614418029
 20
5.235239267349242
 30
0.2500000074505805
 70
   192
  0
VERTEX
  5
31A
330
304
100
AcDbEntity
  8
3D-E-LITE-EQPM
100
AcDbVertex
100
AcDbPolyFaceMeshVertex
 10
-4.164445281028747
 20
4.440645933151244
 30
0.2500000074505805
 70
   192
  0
VERTEX
  5
31B
330
304
100
AcDbEntity
  8
3D-E-LITE-EQPM
100
AcDbVertex
100
AcDbPolyFaceMeshVertex
 10
-4.959038615226745
 20
3.405112266540527
 30
0.2500000074505805
 70
   192
  0
VERTEX
  5
31C
330
304
100
AcDbEntity
  8
3D-E-LITE-EQPM
100
AcDbVertex
100
AcDbPolyFaceMeshVertex
 10
-5.458540678024291
 20
2.199207365512847
 30
0.2500000074505805
 70
   192
  0
VERTEX
  5
31D
330
304
100
AcDbEntity
  8
3D-E-LITE-EQPM
100
AcDbFaceRecord
 10
0.0
 20
0.0
 30
0.0
 70
   128
 71
   -16
 72
     8
 73
     9
 74
   -10
  0
VERTEX
  5
31E
330
304
100
AcDbEntity
  8
3D-E-LITE-EQPM
100
AcDbFaceRecord
 10
0.0
 20
0.0
 30
0.0
 70
   128
 71
   -14
 72
    11
 73
    12
 74
    13
  0
VERTEX
  5
31F
330
304
100
AcDbEntity
  8
3D-E-LITE-EQPM
100
AcDbFaceRecord
 10
0.0
 20
0.0
 30
0.0
 70
   128
 71
   -16
 72
    10
 73
   -11
 74
    15
  0
VERTEX
  5
320
330
304
100
AcDbEntity
  8
3D-E-LITE-EQPM
100
AcDbFaceRecord
 10
0.0
 20
0.0
 30
0.0
 70
   128
 71
     7
 72
    -8
 73
   -20
 74
     6
  0
VERTEX
  5
321
330
304
100
AcDbEntity
  8
3D-E-LITE-EQPM
100
AcDbFaceRecord
 10
0.0
 20
0.0
 30
0.0
 70
   128
 71
     5
 72
    -6
 73
    21
 74
   -22
  0
VERTEX
  5
322
330
304
100
AcDbEntity
  8
3D-E-LITE-EQPM
100
AcDbFaceRecord
 10
0.0
 20
0.0
 30
0.0
 70
   128
 71
     3
 72
    -4
 73
   -23
 74
     2
  0
VERTEX
  5
323
330
304
100
AcDbEntity
  8
3D-E-LITE-EQPM
100
AcDbFaceRecord
 10
0.0
 20
0.0
 30
0.0
 70
   128
 71
     4
 72
    -5
 73
    22
 74
   -23
  0
VERTEX
  5
324
330
304
100
AcDbEntity
  8
3D-E-LITE-EQPM
100
AcDbFaceRecord
 10
0.0
 20
0.0
 30
0.0
 70
   128
 71
    -8
 72
    16
 73
    17
 74
   -18
  0
VERTEX
  5
325
330
304
100
AcDbEntity
  8
3D-E-LITE-EQPM
100
AcDbFaceRecord
 10
0.0
 20
0.0
 30
0.0
 70
   128
 71
    -8
 72
    18
 73
    19
 74
   -20
  0
VERTEX
  5
326
330
304
100
AcDbEntity
  8
3D-E-LITE-EQPM
100
AcDbFaceRecord
 10
0.0
 20
0.0
 30
0.0
 70
   128
 71
    24
 72
     1
 73
    -2
 74
    23
  0
VERTEX
  5
327
330
304
100
AcDbEntity
  8
3D-E-LITE-EQPM
100
AcDbFaceRecord
 10
0.0
 20
0.0
 30
0.0
 70
   128
 71
    -6
 72
    20
 73
   -21
  0
VERTEX
  5
328
330
304
100
AcDbEntity
  8
3D-E-LITE-EQPM
100
AcDbFaceRecord
 10
0.0
 20
0.0
 30
0.0
 70
   128
 71
   -11
 72
    14
 73
   -15
  0
SEQEND
  5
329
330
304
100
AcDbEntity
  8
3D-E-LITE-EQPM
  0
POLYLINE
  5
32A
330
75
100
AcDbEntity
  8
3D-E-LITE-EQPM
100
AcDbPolyFaceMesh
 66
     1
 10
0.0
 20
0.0
 30
0.0
 70
    64
 71
    24
 72
    13
1001
REVIT
1002
{
1070
     1
1000
2318
1002
}
1002
{
1070
     4
1000
1597
1002
}
1002
{
1070
     2
1000
-2001120
1002
}
  0
VERTEX
  5
32B
330
32A
100
AcDbEntity
  8
3D-E-LITE-EQPM
100
AcDbVertex
100
AcDbPolyFaceMeshVertex
 10
-5.62891137599945
 20
0.9051122367382048
 30
0.0000000000000213
 70
   192
  0
VERTEX
  5
32C
330
32A
100
AcDbEntity
  8
3D-E-LITE-EQPM
100
AcDbVertex
100
AcDbPolyFaceMeshVertex
 10
-5.458540678024291
 20
2.199207365512847
 30
0.0000000000000213
 70
   192
  0
VERTEX
  5
32D
330
32A
100
AcDbEntity
  8
3D-E-LITE-EQPM
100
AcDbVertex
100
AcDbPolyFaceMeshVertex
 10
-4.959038615226745
 20
3.405112266540527
 30
0.0000000000000213
 70
   192
  0
VERTEX
  5
32E
330
32A
100
AcDbEntity
  8
3D-E-LITE-EQPM
100
AcDbVertex
100
AcDbPolyFaceMeshVertex
 10
-4.164445281028747
 20
4.440645933151244
 30
0.0000000000000213
 70
   192
  0
VERTEX
  5
32F
330
32A
100
AcDbEntity
  8
3D-E-LITE-EQPM
100
AcDbVertex
100
AcDbPolyFaceMeshVertex
 10
-3.128911614418029
 20
5.235239267349242
 30
0.0000000000000213
 70
   192
  0
VERTEX
  5
330
330
32A
100
AcDbEntity
  8
3D-E-LITE-EQPM
100
AcDbVertex
100
AcDbPolyFaceMeshVertex
 10
-1.92300671339035
 20
5.734741330146789
 30
0.0000000000000213
 70
   192
  0
VERTEX
  5
331
330
32A
100
AcDbEntity
  8
3D-E-LITE-EQPM
100
AcDbVertex
100
AcDbPolyFaceMeshVertex
 10
-0.6289114952087401
 20
5.905112028121947
 30
0.0000000000000213
 70
   192
  0
VERTEX
  5
332
330
32A
100
AcDbEntity
  8
3D-E-LITE-EQPM
100
AcDbVertex
100
AcDbPolyFaceMeshVertex
 10
0.6651837676763533
 20
5.734741330146789
 30
0.0000000000000213
 70
   192
  0
VERTEX
  5
333
330
32A
100
AcDbEntity
  8
3D-E-LITE-EQPM
100
AcDbVertex
100
AcDbPolyFaceMeshVertex
 10
1.871088445186615
 20
5.235239267349242
 30
0.0000000000000213
 70
   192
  0
VERTEX
  5
334
330
32A
100
AcDbEntity
  8
3D-E-LITE-EQPM
100
AcDbVertex
100
AcDbPolyFaceMeshVertex
 10
2.906622469425201
 20
4.440645933151244
 30
0.0000000000000213
 70
   192
  0
VERTEX
  5
335
330
32A
100
AcDbEntity
  8
3D-E-LITE-EQPM
100
AcDbVertex
100
AcDbPolyFaceMeshVertex
 10
3.701215624809265
 20
3.405112266540527
 30
0.0000000000000213
 70
   192
  0
VERTEX
  5
336
330
32A
100
AcDbEntity
  8
3D-E-LITE-EQPM
100
AcDbVertex
100
AcDbPolyFaceMeshVertex
 10
4.200717687606811
 20
2.199207365512847
 30
0.0000000000000213
 70
   192
  0
VERTEX
  5
337
330
32A
100
AcDbEntity
  8
3D-E-LITE-EQPM
100
AcDbVertex
100
AcDbPolyFaceMeshVertex
 10
4.371088385581969
 20
0.9051122367382048
 30
0.0000000000000213
 70
   192
  0
VERTEX
  5
338
330
32A
100
AcDbEntity
  8
3D-E-LITE-EQPM
100
AcDbVertex
100
AcDbPolyFaceMeshVertex
 10
4.200717687606811
 20
-0.3889830261468887
 30
0.0000000000000213
 70
   192
  0
VERTEX
  5
339
330
32A
100
AcDbEntity
  8
3D-E-LITE-EQPM
100
AcDbVertex
100
AcDbPolyFaceMeshVertex
 10
3.701215624809265
 20
-1.594887793064117
 30
0.0000000000000213
 70
   192
  0
VERTEX
  5
33A
330
32A
100
AcDbEntity
  8
3D-E-LITE-EQPM
100
AcDbVertex
100
AcDbPolyFaceMeshVertex
 10
2.906622469425201
 20
-2.630421638488769
 30
0.0000000000000213
 70
   192
  0
VERTEX
  5
33B
330
32A
100
AcDbEntity
  8
3D-E-LITE-EQPM
100
AcDbVertex
100
AcDbPolyFaceMeshVertex
 10
1.871088445186615
 20
-3.425014972686767
 30
0.0000000000000213
 70
   192
  0
VERTEX
  5
33C
330
32A
100
AcDbEntity
  8
3D-E-LITE-EQPM
100
AcDbVertex
100
AcDbPolyFaceMeshVertex
 10
0.6651837676763533
 20
-3.924517035484314
 30
0.0000000000000213
 70
   192
  0
VERTEX
  5
33D
330
32A
100
AcDbEntity
  8
3D-E-LITE-EQPM
100
AcDbVertex
100
AcDbPolyFaceMeshVertex
 10
-0.6289114952087401
 20
-4.094887733459472
 30
0.0000000000000213
 70
   192
  0
VERTEX
  5
33E
330
32A
100
AcDbEntity
  8
3D-E-LITE-EQPM
100
AcDbVertex
100
AcDbPolyFaceMeshVertex
 10
-1.92300671339035
 20
-3.924517035484314
 30
0.0000000000000213
 70
   192
  0
VERTEX
  5
33F
330
32A
100
AcDbEntity
  8
3D-E-LITE-EQPM
100
AcDbVertex
100
AcDbPolyFaceMeshVertex
 10
-3.128911614418029
 20
-3.425014972686767
 30
0.0000000000000213
 70
   192
  0
VERTEX
  5
340
330
32A
100
AcDbEntity
  8
3D-E-LITE-EQPM
100
AcDbVertex
100
AcDbPolyFaceMeshVertex
 10
-4.164445281028747
 20
-2.630421638488769
 30
0.0000000000000213
 70
   192
  0
VERTEX
  5
341
330
32A
100
AcDbEntity
  8
3D-E-LITE-EQPM
100
AcDbVertex
100
AcDbPolyFaceMeshVertex
 10
-4.959038615226745
 20
-1.594887793064117
 30
0.0000000000000213
 70
   192
  0
VERTEX
  5
342
330
32A
100
AcDbEntity
  8
3D-E-LITE-EQPM
100
AcDbVertex
100
AcDbPolyFaceMeshVertex
 10
-5.458540678024291
 20
-0.3889830261468887
 30
0.0000000000000213
 70
   192
  0
VERTEX
  5
343
330
32A
100
AcDbEntity
  8
3D-E-LITE-EQPM
100
AcDbFaceRecord
 10
0.0
 20
0.0
 30
0.0
 70
   128
 71
     7
 72
    -8
 73
    18
 74
   -19
  0
VERTEX
  5
344
330
32A
100
AcDbEntity
  8
3D-E-LITE-EQPM
100
AcDbFaceRecord
 10
0.0
 20
0.0
 30
0.0
 70
   128
 71
     6
 72
    -7
 73
    19
 74
   -20
  0
VERTEX
  5
345
330
32A
100
AcDbEntity
  8
3D-E-LITE-EQPM
100
AcDbFaceRecord
 10
0.0
 20
0.0
 30
0.0
 70
   128
 71
    10
 72
   -11
 73
   -16
 74
     9
  0
VERTEX
  5
346
330
32A
100
AcDbEntity
  8
3D-E-LITE-EQPM
100
AcDbFaceRecord
 10
0.0
 20
0.0
 30
0.0
 70
   128
 71
     8
 72
    -9
 73
    17
 74
   -18
  0
VERTEX
  5
347
330
32A
100
AcDbEntity
  8
3D-E-LITE-EQPM
100
AcDbFaceRecord
 10
0.0
 20
0.0
 30
0.0
 70
   128
 71
     4
 72
    -5
 73
    21
 74
   -22
  0
VERTEX
  5
348
330
32A
100
AcDbEntity
  8
3D-E-LITE-EQPM
100
AcDbFaceRecord
 10
0.0
 20
0.0
 30
0.0
 70
   128
 71
     3
 72
    -4
 73
    22
 74
   -23
  0
VERTEX
  5
349
330
32A
100
AcDbEntity
  8
3D-E-LITE-EQPM
100
AcDbFaceRecord
 10
0.0
 20
0.0
 30
0.0
 70
   128
 71
    24
 72
     1
 73
     2
 74
    -3
  0
VERTEX
  5
34A
330
32A
100
AcDbEntity
  8
3D-E-LITE-EQPM
100
AcDbFaceRecord
 10
0.0
 20
0.0
 30
0.0
 70
   128
 71
     5
 72
    -6
 73
    20
 74
   -21
  0
VERTEX
  5
34B
330
32A
100
AcDbEntity
  8
3D-E-LITE-EQPM
100
AcDbFaceRecord
 10
0.0
 20
0.0
 30
0.0
 70
   128
 71
   -15
 72
    11
 73
   -12
 74
    14
  0
VERTEX
  5
34C
330
32A
100
AcDbEntity
  8
3D-E-LITE-EQPM
100
AcDbFaceRecord
 10
0.0
 20
0.0
 30
0.0
 70
   128
 71
   -11
 72
    15
 73
   -16
  0
VERTEX
  5
34D
330
32A
100
AcDbEntity
  8
3D-E-LITE-EQPM
100
AcDbFaceRecord
 10
0.0
 20
0.0
 30
0.0
 70
   128
 71
    -9
 72
    16
 73
   -17
  0
VERTEX
  5
34E
330
32A
100
AcDbEntity
  8
3D-E-LITE-EQPM
100
AcDbFaceRecord
 10
0.0
 20
0.0
 30
0.0
 70
   128
 71
    23
 72
   -24
 73
    -3
  0
VERTEX
  5
34F
330
32A
100
AcDbEntity
  8
3D-E-LITE-EQPM
100
AcDbFaceRecord
 10
0.0
 20
0.0
 30
0.0
 70
   128
 71
    13
 72
   -14
 73
    12
  0
SEQEND
  5
350
330
32A
100
AcDbEntity
  8
3D-E-LITE-EQPM
  0
POLYLINE
  5
351
330
75
100
AcDbEntity
  8
3D-E-LITE-EQPM
100
AcDbPolyFaceMesh
 66
     1
 10
0.0
 20
0.0
 30
0.0
 70
    64
 71
    26
 72
    12
1001
REVIT
1002
{
1070
     1
1000
2318
1002
}
1002
{
1070
     4
1000
1597
1002
}
1002
{
1070
     2
1000
-2001120
1002
}
  0
VERTEX
  5
352
330
351
100
AcDbEntity
  8
3D-E-LITE-EQPM
100
AcDbVertex
100
AcDbPolyFaceMeshVertex
 10
4.371088385581969
 20
0.9051122367382048
 30
0.2500000074505805
 70
   192
  0
VERTEX
  5
353
330
351
100
AcDbEntity
  8
3D-E-LITE-EQPM
100
AcDbVertex
100
AcDbPolyFaceMeshVertex
 10
4.200717687606811
 20
-0.3889830261468887
 30
0.2500000074505805
 70
   192
  0
VERTEX
  5
354
330
351
100
AcDbEntity
  8
3D-E-LITE-EQPM
100
AcDbVertex
100
AcDbPolyFaceMeshVertex
 10
3.701215624809265
 20
-1.594887793064117
 30
0.2500000074505805
 70
   192
  0
VERTEX
  5
355
330
351
100
AcDbEntity
  8
3D-E-LITE-EQPM
100
AcDbVertex
100
AcDbPolyFaceMeshVertex
 10
2.906622469425201
 20
-2.630421638488769
 30
0.2500000074505805
 70
   192
  0
VERTEX
  5
356
330
351
100
AcDbEntity
  8
3D-E-LITE-EQPM
100
AcDbVertex
100
AcDbPolyFaceMeshVertex
 10
1.871088445186615
 20
-3.425014972686767
 30
0.2500000074505805
 70
   192
  0
VERTEX
  5
357
330
351
100
AcDbEntity
  8
3D-E-LITE-EQPM
100
AcDbVertex
100
AcDbPolyFaceMeshVertex
 10
0.6651837676763533
 20
-3.924517035484314
 30
0.2500000074505805
 70
   192
  0
VERTEX
  5
358
330
351
100
AcDbEntity
  8
3D-E-LITE-EQPM
100
AcDbVertex
100
AcDbPolyFaceMeshVertex
 10
-0.6289114952087401
 20
-4.094887733459472
 30
0.2500000074505805
 70
   192
  0
VERTEX
  5
359
330
351
100
AcDbEntity
  8
3D-E-LITE-EQPM
100
AcDbVertex
100
AcDbPolyFaceMeshVertex
 10
-1.92300671339035
 20
-3.924517035484314
 30
0.2500000074505805
 70
   192
  0
VERTEX
  5
35A
330
351
100
AcDbEntity
  8
3D-E-LITE-EQPM
100
AcDbVertex
100
AcDbPolyFaceMeshVertex
 10
-3.128911614418029
 20
-3.425014972686767
 30
0.2500000074505805
 70
   192
  0
VERTEX
  5
35B
330
351
100
AcDbEntity
  8
3D-E-LITE-EQPM
100
AcDbVertex
100
AcDbPolyFaceMeshVertex
 10
-4.164445281028747
 20
-2.630421638488769
 30
0.2500000074505805
 70
   192
  0
VERTEX
  5
35C
330
351
100
AcDbEntity
  8
3D-E-LITE-EQPM
100
AcDbVertex
100
AcDbPolyFaceMeshVertex
 10
-4.959038615226745
 20
-1.594887793064117
 30
0.2500000074505805
 70
   192
  0
VERTEX
  5
35D
330
351
100
AcDbEntity
  8
3D-E-LITE-EQPM
100
AcDbVertex
100
AcDbPolyFaceMeshVertex
 10
-5.458540678024291
 20
-0.3889830261468887
 30
0.2500000074505805
 70
   192
  0
VERTEX
  5
35E
330
351
100
AcDbEntity
  8
3D-E-LITE-EQPM
100
AcDbVertex
100
AcDbPolyFaceMeshVertex
 10
-5.62891137599945
 20
0.9051122367382048
 30
0.2500000074505805
 70
   192
  0
VERTEX
  5
35F
330
351
100
AcDbEntity
  8
3D-E-LITE-EQPM
100
AcDbVertex
100
AcDbPolyFaceMeshVertex
 10
-5.62891137599945
 20
0.9051122367382048
 30
0.0000000000000213
 70
   192
  0
VERTEX
  5
360
330
351
100
AcDbEntity
  8
3D-E-LITE-EQPM
100
AcDbVertex
100
AcDbPolyFaceMeshVertex
 10
-5.458540678024291
 20
-0.3889830261468887
 30
0.0000000000000213
 70
   192
  0
VERTEX
  5
361
330
351
100
AcDbEntity
  8
3D-E-LITE-EQPM
100
AcDbVertex
100
AcDbPolyFaceMeshVertex
 10
-4.959038615226745
 20
-1.594887793064117
 30
0.0000000000000213
 70
   192
  0
VERTEX
  5
362
330
351
100
AcDbEntity
  8
3D-E-LITE-EQPM
100
AcDbVertex
100
AcDbPolyFaceMeshVertex
 10
-4.164445281028747
 20
-2.630421638488769
 30
0.0000000000000213
 70
   192
  0
VERTEX
  5
363
330
351
100
AcDbEntity
  8
3D-E-LITE-EQPM
100
AcDbVertex
100
AcDbPolyFaceMeshVertex
 10
-3.128911614418029
 20
-3.425014972686767
 30
0.0000000000000213
 70
   192
  0
VERTEX
  5
364
330
351
100
AcDbEntity
  8
3D-E-LITE-EQPM
100
AcDbVertex
100
AcDbPolyFaceMeshVertex
 10
-1.92300671339035
 20
-3.924517035484314
 30
0.0000000000000213
 70
   192
  0
VERTEX
  5
365
330
351
100
AcDbEntity
  8
3D-E-LITE-EQPM
100
AcDbVertex
100
AcDbPolyFaceMeshVertex
 10
-0.6289114952087401
 20
-4.094887733459472
 30
0.0000000000000213
 70
   192
  0
VERTEX
  5
366
330
351
100
AcDbEntity
  8
3D-E-LITE-EQPM
100
AcDbVertex
100
AcDbPolyFaceMeshVertex
 10
0.6651837676763533
 20
-3.924517035484314
 30
0.0000000000000213
 70
   192
  0
VERTEX
  5
367
330
351
100
AcDbEntity
  8
3D-E-LITE-EQPM
100
AcDbVertex
100
AcDbPolyFaceMeshVertex
 10
1.871088445186615
 20
-3.425014972686767
 30
0.0000000000000213
 70
   192
  0
VERTEX
  5
368
330
351
100
AcDbEntity
  8
3D-E-LITE-EQPM
100
AcDbVertex
100
AcDbPolyFaceMeshVertex
 10
2.906622469425201
 20
-2.630421638488769
 30
0.0000000000000213
 70
   192
  0
VERTEX
  5
369
330
351
100
AcDbEntity
  8
3D-E-LITE-EQPM
100
AcDbVertex
100
AcDbPolyFaceMeshVertex
 10
3.701215624809265
 20
-1.594887793064117
 30
0.0000000000000213
 70
   192
  0
VERTEX
  5
36A
330
351
100
AcDbEntity
  8
3D-E-LITE-EQPM
100
AcDbVertex
100
AcDbPolyFaceMeshVertex
 10
4.200717687606811
 20
-0.3889830261468887
 30
0.0000000000000213
 70
   192
  0
VERTEX
  5
36B
330
351
100
AcDbEntity
  8
3D-E-LITE-EQPM
100
AcDbVertex
100
AcDbPolyFaceMeshVertex
 10
4.371088385581969
 20
0.9051122367382048
 30
0.0000000000000213
 70
   192
  0
VERTEX
  5
36C
330
351
100
AcDbEntity
  8
3D-E-LITE-EQPM
100
AcDbFaceRecord
 10
0.0
 20
0.0
 30
0.0
 70
   128
 71
    14
 72
   -15
 73
    12
 74
    13
  0
VERTEX
  5
36D
330
351
100
AcDbEntity
  8
3D-E-LITE-EQPM
100
AcDbFaceRecord
 10
0.0
 20
0.0
 30
0.0
 70
   128
 71
    15
 72
   -16
 73
    11
 74
   -12
  0
VERTEX
  5
36E
330
351
100
AcDbEntity
  8
3D-E-LITE-EQPM
100
AcDbFaceRecord
 10
0.0
 20
0.0
 30
0.0
 70
   128
 71
    17
 72
   -18
 73
     9
 74
   -10
  0
VERTEX
  5
36F
330
351
100
AcDbEntity
  8
3D-E-LITE-EQPM
100
AcDbFaceRecord
 10
0.0
 20
0.0
 30
0.0
 70
   128
 71
    16
 72
   -17
 73
    10
 74
   -11
  0
VERTEX
  5
370
330
351
100
AcDbEntity
  8
3D-E-LITE-EQPM
100
AcDbFaceRecord
 10
0.0
 20
0.0
 30
0.0
 70
   128
 71
    18
 72
   -19
 73
     8
 74
    -9
  0
VERTEX
  5
371
330
351
100
AcDbEntity
  8
3D-E-LITE-EQPM
100
AcDbFaceRecord
 10
0.0
 20
0.0
 30
0.0
 70
   128
 71
     7
 72
    -8
 73
    19
 74
   -20
  0
VERTEX
  5
372
330
351
100
AcDbEntity
  8
3D-E-LITE-EQPM
100
AcDbFaceRecord
 10
0.0
 20
0.0
 30
0.0
 70
   128
 71
    20
 72
   -21
 73
     6
 74
    -7
  0
VERTEX
  5
373
330
351
100
AcDbEntity
  8
3D-E-LITE-EQPM
100
AcDbFaceRecord
 10
0.0
 20
0.0
 30
0.0
 70
   128
 71
    21
 72
   -22
 73
     5
 74
    -6
  0
VERTEX
  5
374
330
351
100
AcDbEntity
  8
3D-E-LITE-EQPM
100
AcDbFaceRecord
 10
0.0
 20
0.0
 30
0.0
 70
   128
 71
    23
 72
   -24
 73
     3
 74
    -4
  0
VERTEX
  5
375
330
351
100
AcDbEntity
  8
3D-E-LITE-EQPM
100
AcDbFaceRecord
 10
0.0
 20
0.0
 30
0.0
 70
   128
 71
    22
 72
   -23
 73
     4
 74
    -5
  0
VERTEX
  5
376
330
351
100
AcDbEntity
  8
3D-E-LITE-EQPM
100
AcDbFaceRecord
 10
0.0
 20
0.0
 30
0.0
 70
   128
 71
    24
 72
   -25
 73
     2
 74
    -3
  0
VERTEX
  5
377
330
351
100
AcDbEntity
  8
3D-E-LITE-EQPM
100
AcDbFaceRecord
 10
0.0
 20
0.0
 30
0.0
 70
   128
 71
     1
 72
    -2
 73
    25
 74
    26
  0
SEQEND
  5
378
330
351
100
AcDbEntity
  8
3D-E-LITE-EQPM
  0
POLYLINE
  5
379
330
75
100
AcDbEntity
  8
3D-E-LITE-EQPM
100
AcDbPolyFaceMesh
 66
     1
 10
0.0
 20
0.0
 30
0.0
 70
    64
 71
    26
 72
    12
1001
REVIT
1002
{
1070
     1
1000
2318
1002
}
1002
{
1070
     4
1000
1597
1002
}
1002
{
1070
     2
1000
-2001120
1002
}
  0
VERTEX
  5
37A
330
379
100
AcDbEntity
  8
3D-E-LITE-EQPM
100
AcDbVertex
100
AcDbPolyFaceMeshVertex
 10
-5.62891137599945
 20
0.9051122367382048
 30
0.2500000074505805
 70
   192
  0
VERTEX
  5
37B
330
379
100
AcDbEntity
  8
3D-E-LITE-EQPM
100
AcDbVertex
100
AcDbPolyFaceMeshVertex
 10
-5.458540678024291
 20
2.199207365512847
 30
0.2500000074505805
 70
   192
  0
VERTEX
  5
37C
330
379
100
AcDbEntity
  8
3D-E-LITE-EQPM
100
AcDbVertex
100
AcDbPolyFaceMeshVertex
 10
-4.959038615226745
 20
3.405112266540527
 30
0.2500000074505805
 70
   192
  0
VERTEX
  5
37D
330
379
100
AcDbEntity
  8
3D-E-LITE-EQPM
100
AcDbVertex
100
AcDbPolyFaceMeshVertex
 10
-4.164445281028747
 20
4.440645933151244
 30
0.2500000074505805
 70
   192
  0
VERTEX
  5
37E
330
379
100
AcDbEntity
  8
3D-E-LITE-EQPM
100
AcDbVertex
100
AcDbPolyFaceMeshVertex
 10
-3.128911614418029
 20
5.235239267349242
 30
0.2500000074505805
 70
   192
  0
VERTEX
  5
37F
330
379
100
AcDbEntity
  8
3D-E-LITE-EQPM
100
AcDbVertex
100
AcDbPolyFaceMeshVertex
 10
-1.92300671339035
 20
5.734741330146789
 30
0.2500000074505805
 70
   192
  0
VERTEX
  5
380
330
379
100
AcDbEntity
  8
3D-E-LITE-EQPM
100
AcDbVertex
100
AcDbPolyFaceMeshVertex
 10
-0.6289114952087401
 20
5.905112028121947
 30
0.2500000074505805
 70
   192
  0
VERTEX
  5
381
330
379
100
AcDbEntity
  8
3D-E-LITE-EQPM
100
AcDbVertex
100
AcDbPolyFaceMeshVertex
 10
0.6651837676763533
 20
5.734741330146789
 30
0.2500000074505805
 70
   192
  0
VERTEX
  5
382
330
379
100
AcDbEntity
  8
3D-E-LITE-EQPM
100
AcDbVertex
100
AcDbPolyFaceMeshVertex
 10
1.871088445186615
 20
5.235239267349242
 30
0.2500000074505805
 70
   192
  0
VERTEX
  5
383
330
379
100
AcDbEntity
  8
3D-E-LITE-EQPM
100
AcDbVertex
100
AcDbPolyFaceMeshVertex
 10
2.906622469425201
 20
4.440645933151244
 30
0.2500000074505805
 70
   192
  0
VERTEX
  5
384
330
379
100
AcDbEntity
  8
3D-E-LITE-EQPM
100
AcDbVertex
100
AcDbPolyFaceMeshVertex
 10
3.701215624809265
 20
3.405112266540527
 30
0.2500000074505805
 70
   192
  0
VERTEX
  5
385
330
379
100
AcDbEntity
  8
3D-E-LITE-EQPM
100
AcDbVertex
100
AcDbPolyFaceMeshVertex
 10
4.200717687606811
 20
2.199207365512847
 30
0.2500000074505805
 70
   192
  0
VERTEX
  5
386
330
379
100
AcDbEntity
  8
3D-E-LITE-EQPM
100
AcDbVertex
100
AcDbPolyFaceMeshVertex
 10
4.371088385581969
 20
0.9051122367382048
 30
0.2500000074505805
 70
   192
  0
VERTEX
  5
387
330
379
100
AcDbEntity
  8
3D-E-LITE-EQPM
100
AcDbVertex
100
AcDbPolyFaceMeshVertex
 10
4.371088385581969
 20
0.9051122367382048
 30
0.0000000000000213
 70
   192
  0
VERTEX
  5
388
330
379
100
AcDbEntity
  8
3D-E-LITE-EQPM
100
AcDbVertex
100
AcDbPolyFaceMeshVertex
 10
4.200717687606811
 20
2.199207365512847
 30
0.0000000000000213
 70
   192
  0
VERTEX
  5
389
330
379
100
AcDbEntity
  8
3D-E-LITE-EQPM
100
AcDbVertex
100
AcDbPolyFaceMeshVertex
 10
3.701215624809265
 20
3.405112266540527
 30
0.0000000000000213
 70
   192
  0
VERTEX
  5
38A
330
379
100
AcDbEntity
  8
3D-E-LITE-EQPM
100
AcDbVertex
100
AcDbPolyFaceMeshVertex
 10
2.906622469425201
 20
4.440645933151244
 30
0.0000000000000213
 70
   192
  0
VERTEX
  5
38B
330
379
100
AcDbEntity
  8
3D-E-LITE-EQPM
100
AcDbVertex
100
AcDbPolyFaceMeshVertex
 10
1.871088445186615
 20
5.235239267349242
 30
0.0000000000000213
 70
   192
  0
VERTEX
  5
38C
330
379
100
AcDbEntity
  8
3D-E-LITE-EQPM
100
AcDbVertex
100
AcDbPolyFaceMeshVertex
 10
0.6651837676763533
 20
5.734741330146789
 30
0.0000000000000213
 70
   192
  0
VERTEX
  5
38D
330
379
100
AcDbEntity
  8
3D-E-LITE-EQPM
100
AcDbVertex
100
AcDbPolyFaceMeshVertex
 10
-0.6289114952087401
 20
5.905112028121947
 30
0.0000000000000213
 70
   192
  0
VERTEX
  5
38E
330
379
100
AcDbEntity
  8
3D-E-LITE-EQPM
100
AcDbVertex
100
AcDbPolyFaceMeshVertex
 10
-1.92300671339035
 20
5.734741330146789
 30
0.0000000000000213
 70
   192
  0
VERTEX
  5
38F
330
379
100
AcDbEntity
  8
3D-E-LITE-EQPM
100
AcDbVertex
100
AcDbPolyFaceMeshVertex
 10
-3.128911614418029
 20
5.235239267349242
 30
0.0000000000000213
 70
   192
  0
VERTEX
  5
390
330
379
100
AcDbEntity
  8
3D-E-LITE-EQPM
100
AcDbVertex
100
AcDbPolyFaceMeshVertex
 10
-4.164445281028747
 20
4.440645933151244
 30
0.0000000000000213
 70
   192
  0
VERTEX
  5
391
330
379
100
AcDbEntity
  8
3D-E-LITE-EQPM
100
AcDbVertex
100
AcDbPolyFaceMeshVertex
 10
-4.959038615226745
 20
3.405112266540527
 30
0.0000000000000213
 70
   192
  0
VERTEX
  5
392
330
379
100
AcDbEntity
  8
3D-E-LITE-EQPM
100
AcDbVertex
100
AcDbPolyFaceMeshVertex
 10
-5.458540678024291
 20
2.199207365512847
 30
0.0000000000000213
 70
   192
  0
VERTEX
  5
393
330
379
100
AcDbEntity
  8
3D-E-LITE-EQPM
100
AcDbVertex
100
AcDbPolyFaceMeshVertex
 10
-5.62891137599945
 20
0.9051122367382048
 30
0.0000000000000213
 70
   192
  0
VERTEX
  5
394
330
379
100
AcDbEntity
  8
3D-E-LITE-EQPM
100
AcDbFaceRecord
 10
0.0
 20
0.0
 30
0.0
 70
   128
 71
    14
 72
   -15
 73
    12
 74
    13
  0
VERTEX
  5
395
330
379
100
AcDbEntity
  8
3D-E-LITE-EQPM
100
AcDbFaceRecord
 10
0.0
 20
0.0
 30
0.0
 70
   128
 71
    15
 72
   -16
 73
    11
 74
   -12
  0
VERTEX
  5
396
330
379
100
AcDbEntity
  8
3D-E-LITE-EQPM
100
AcDbFaceRecord
 10
0.0
 20
0.0
 30
0.0
 70
   128
 71
    17
 72
   -18
 73
     9
 74
   -10
  0
VERTEX
  5
397
330
379
100
AcDbEntity
  8
3D-E-LITE-EQPM
100
AcDbFaceRecord
 10
0.0
 20
0.0
 30
0.0
 70
   128
 71
    16
 72
   -17
 73
    10
 74
   -11
  0
VERTEX
  5
398
330
379
100
AcDbEntity
  8
3D-E-LITE-EQPM
100
AcDbFaceRecord
 10
0.0
 20
0.0
 30
0.0
 70
   128
 71
    18
 72
   -19
 73
     8
 74
    -9
  0
VERTEX
  5
399
330
379
100
AcDbEntity
  8
3D-E-LITE-EQPM
100
AcDbFaceRecord
 10
0.0
 20
0.0
 30
0.0
 70
   128
 71
     7
 72
    -8
 73
    19
 74
   -20
  0
VERTEX
  5
39A
330
379
100
AcDbEntity
  8
3D-E-LITE-EQPM
100
AcDbFaceRecord
 10
0.0
 20
0.0
 30
0.0
 70
   128
 71
    20
 72
   -21
 73
     6
 74
    -7
  0
VERTEX
  5
39B
330
379
100
AcDbEntity
  8
3D-E-LITE-EQPM
100
AcDbFaceRecord
 10
0.0
 20
0.0
 30
0.0
 70
   128
 71
    21
 72
   -22
 73
     5
 74
    -6
  0
VERTEX
  5
39C
330
379
100
AcDbEntity
  8
3D-E-LITE-EQPM
100
AcDbFaceRecord
 10
0.0
 20
0.0
 30
0.0
 70
   128
 71
    -3
 72
    24
 73
   -25
 74
     2
  0
VERTEX
  5
39D
330
379
100
AcDbEntity
  8
3D-E-LITE-EQPM
100
AcDbFaceRecord
 10
0.0
 20
0.0
 30
0.0
 70
   128
 71
    -2
 72
    25
 73
    26
 74
     1
  0
VERTEX
  5
39E
330
379
100
AcDbEntity
  8
3D-E-LITE-EQPM
100
AcDbFaceRecord
 10
0.0
 20
0.0
 30
0.0
 70
   128
 71
     4
 72
    -5
 73
    22
 74
   -23
  0
VERTEX
  5
39F
330
379
100
AcDbEntity
  8
3D-E-LITE-EQPM
100
AcDbFaceRecord
 10
0.0
 20
0.0
 30
0.0
 70
   128
 71
     3
 72
    -4
 73
    23
 74
   -24
  0
SEQEND
  5
3A0
330
379
100
AcDbEntity
  8
3D-E-LITE-EQPM
  0
CIRCLE
  5
3A1
330
75
100
AcDbEntity
  8
3D-E-LITE-EQPM
100
AcDbCircle
 10
0.905112193909848
 20
-0.4553466859442595
 30
-2.046506545053956
 40
24.0
210
0.4999999999999994
220
0.0
230
0.8660254037844389
1001
REVIT
1002
{
1070
     1
1000
2767
1002
}
1002
{
1070
     4
1000
2774
1002
}
1002
{
1070
     2
1000
-2001120
1002
}
1002
{
1070
     3
1000
-2001121
1002
}
  0
LINE
  5
3A2
330
75
100
AcDbEntity
  8
3D-E-LITE-EQPM
100
AcDbLine
 10
5.371088525029799
 20
0.905112193909848
 30
8.392304845413287
 11
-6.628911474970185
 21
0.905112193909848
 31
-12.39230484541324
1001
REVIT
1002
{
1070
     1
1000
2767
1002
}
1002
{
1070
     4
1000
2774
1002
}
1002
{
1070
     2
1000
-2001120
1002
}
1002
{
1070
     3
1000
-2001121
1002
}
  0
CIRCLE
  5
3A3
330
75
100
AcDbEntity
  8
3D-E-LITE-EQPM
100
AcDbCircle
 10
0.6289114749701932
 20
-1.999999999999978
 30
0.905112193909848
 40
24.0
210
0.0
220
1.0
230
0.0
1001
REVIT
1002
{
1070
     1
1000
2767
1002
}
1002
{
1070
     4
1000
2774
1002
}
1002
{
1070
     2
1000
-2001120
1002
}
1002
{
1070
     3
1000
-2001121
1002
}
  0
LINE
  5
3A4
330
75
100
AcDbEntity
  8
3D-E-LITE-EQPM
100
AcDbLine
 10
-0.6289114749701932
 20
12.90511219390984
 30
-1.999999999999978
 11
-0.6289114749701932
 21
-11.09488780609015
 31
-1.999999999999978
1001
REVIT
1002
{
1070
     1
1000
2767
1002
}
1002
{
1070
     4
1000
2774
1002
}
1002
{
1070
     2
1000
-2001120
1002
}
1002
{
1070
     3
1000
-2001121
1002
}
  0
CIRCLE
  5
3A5
330
75
100
AcDbEntity
  8
3D-E-LITE-EQPM
100
AcDbCircle
 10
0.905112193909848
 20
-2.046506545053956
 30
0.4553466859442594
 40
24.0
210
0.866025403784439
220
0.0
230
-0.4999999999999995
1001
REVIT
1002
{
1070
     1
1000
2767
1002
}
1002
{
1070
     4
1000
2774
1002
}
1002
{
1070
     2
1000
-2001120
1002
}
1002
{
1070
     3
1000
-2001121
1002
}
  0
LINE
  5
3A6
330
75
100
AcDbEntity
  8
3D-E-LITE-EQPM
100
AcDbLine
 10
9.763393370443072
 20
0.905112193909848
 30
-7.999999999999971
 11
-11.02121632038346
 21
0.905112193909848
 31
4.000000000000014
1001
REVIT
1002
{
1070
     1
1000
2767
1002
}
1002
{
1070
     4
1000
2774
1002
}
1002
{
1070
     2
1000
-2001120
1002
}
1002
{
1070
     3
1000
-2001121
1002
}
  0
POLYLINE
  5
3A7
330
75
100
AcDbEntity
  8
3D-E-LITE-EQPM
100
AcDbPolyFaceMesh
 66
     1
 10
0.0
 20
0.0
 30
0.0
 70
    64
 71
    24
 72
    13
1001
REVIT
1002
{
1070
     1
1000
3792
1002
}
1002
{
1070
     4
1000
1597
1002
}
1002
{
1070
     2
1000
-2001120
1002
}
  0
VERTEX
  5
3A8
330
3A7
100
AcDbEntity
  8
3D-E-LITE-EQPM
100
AcDbVertex
100
AcDbPolyFaceMeshVertex
 10
4.245823144912719
 20
0.9051122367382048
 30
0.0000000000000212
 70
   192
  0
VERTEX
  5
3A9
330
3A7
100
AcDbEntity
  8
3D-E-LITE-EQPM
100
AcDbVertex
100
AcDbPolyFaceMeshVertex
 10
4.079720735549926
 20
2.166786432266235
 30
0.0000000000000212
 70
   192
  0
VERTEX
  5
3AA
330
3A7
100
AcDbEntity
  8
3D-E-LITE-EQPM
100
AcDbVertex
100
AcDbPolyFaceMeshVertex
 10
3.592732787132263
 20
3.342479467391967
 30
0.0000000000000212
 70
   192
  0
VERTEX
  5
3AB
330
3A7
100
AcDbEntity
  8
3D-E-LITE-EQPM
100
AcDbVertex
100
AcDbPolyFaceMeshVertex
 10
2.818046450614929
 20
4.352070093154906
 30
0.0000000000000212
 70
   192
  0
VERTEX
  5
3AC
330
3A7
100
AcDbEntity
  8
3D-E-LITE-EQPM
100
AcDbVertex
100
AcDbPolyFaceMeshVertex
 10
1.80845582485199
 20
5.12675642967224
 30
0.0000000000000212
 70
   192
  0
VERTEX
  5
3AD
330
3A7
100
AcDbEntity
  8
3D-E-LITE-EQPM
100
AcDbVertex
100
AcDbPolyFaceMeshVertex
 10
0.63276270031929
 20
5.613744378089904
 30
0.0000000000000212
 70
   192
  0
VERTEX
  5
3AE
330
3A7
100
AcDbEntity
  8
3D-E-LITE-EQPM
100
AcDbVertex
100
AcDbPolyFaceMeshVertex
 10
-0.6289114952087401
 20
5.779846787452697
 30
0.0000000000000212
 70
   192
  0
VERTEX
  5
3AF
330
3A7
100
AcDbEntity
  8
3D-E-LITE-EQPM
100
AcDbVertex
100
AcDbPolyFaceMeshVertex
 10
-1.890585601329803
 20
5.613744378089904
 30
0.0000000000000212
 70
   192
  0
VERTEX
  5
3B0
330
3A7
100
AcDbEntity
  8
3D-E-LITE-EQPM
100
AcDbVertex
100
AcDbPolyFaceMeshVertex
 10
-3.06627881526947
 20
5.12675642967224
 30
0.0000000000000212
 70
   192
  0
VERTEX
  5
3B1
330
3A7
100
AcDbEntity
  8
3D-E-LITE-EQPM
100
AcDbVertex
100
AcDbPolyFaceMeshVertex
 10
-4.075869441032409
 20
4.352070093154906
 30
0.0000000000000212
 70
   192
  0
VERTEX
  5
3B2
330
3A7
100
AcDbEntity
  8
3D-E-LITE-EQPM
100
AcDbVertex
100
AcDbPolyFaceMeshVertex
 10
-4.850555419921874
 20
3.342479467391967
 30
0.0000000000000212
 70
   192
  0
VERTEX
  5
3B3
330
3A7
100
AcDbEntity
  8
3D-E-LITE-EQPM
100
AcDbVertex
100
AcDbPolyFaceMeshVertex
 10
-5.337543725967406
 20
2.166786432266235
 30
0.0000000000000212
 70
   192
  0
VERTEX
  5
3B4
330
3A7
100
AcDbEntity
  8
3D-E-LITE-EQPM
100
AcDbVertex
100
AcDbPolyFaceMeshVertex
 10
-5.503646135330199
 20
0.9051122367382048
 30
0.0000000000000212
 70
   192
  0
VERTEX
  5
3B5
330
3A7
100
AcDbEntity
  8
3D-E-LITE-EQPM
100
AcDbVertex
100
AcDbPolyFaceMeshVertex
 10
-5.337543725967406
 20
-0.3565619811415672
 30
0.0000000000000212
 70
   192
  0
VERTEX
  5
3B6
330
3A7
100
AcDbEntity
  8
3D-E-LITE-EQPM
100
AcDbVertex
100
AcDbPolyFaceMeshVertex
 10
-4.850555419921874
 20
-1.532255172729492
 30
0.0000000000000212
 70
   192
  0
VERTEX
  5
3B7
330
3A7
100
AcDbEntity
  8
3D-E-LITE-EQPM
100
AcDbVertex
100
AcDbPolyFaceMeshVertex
 10
-4.075869441032409
 20
-2.541845798492431
 30
0.0000000000000212
 70
   192
  0
VERTEX
  5
3B8
330
3A7
100
AcDbEntity
  8
3D-E-LITE-EQPM
100
AcDbVertex
100
AcDbPolyFaceMeshVertex
 10
-3.06627881526947
 20
-3.316531777381897
 30
0.0000000000000212
 70
   192
  0
VERTEX
  5
3B9
330
3A7
100
AcDbEntity
  8
3D-E-LITE-EQPM
100
AcDbVertex
100
AcDbPolyFaceMeshVertex
 10
-1.890585601329803
 20
-3.803520083427429
 30
0.0000000000000212
 70
   192
  0
VERTEX
  5
3BA
330
3A7
100
AcDbEntity
  8
3D-E-LITE-EQPM
100
AcDbVertex
100
AcDbPolyFaceMeshVertex
 10
-0.6289114952087401
 20
-3.969622492790222
 30
0.0000000000000212
 70
   192
  0
VERTEX
  5
3BB
330
3A7
100
AcDbEntity
  8
3D-E-LITE-EQPM
100
AcDbVertex
100
AcDbPolyFaceMeshVertex
 10
0.63276270031929
 20
-3.803520083427429
 30
0.0000000000000212
 70
   192
  0
VERTEX
  5
3BC
330
3A7
100
AcDbEntity
  8
3D-E-LITE-EQPM
100
AcDbVertex
100
AcDbPolyFaceMeshVertex
 10
1.80845582485199
 20
-3.316531777381897
 30
0.0000000000000212
 70
   192
  0
VERTEX
  5
3BD
330
3A7
100
AcDbEntity
  8
3D-E-LITE-EQPM
100
AcDbVertex
100
AcDbPolyFaceMeshVertex
 10
2.818046450614929
 20
-2.541845798492431
 30
0.0000000000000212
 70
   192
  0
VERTEX
  5
3BE
330
3A7
100
AcDbEntity
  8
3D-E-LITE-EQPM
100
AcDbVertex
100
AcDbPolyFaceMeshVertex
 10
3.592732787132263
 20
-1.532255172729492
 30
0.0000000000000212
 70
   192
  0
VERTEX
  5
3BF
330
3A7
100
AcDbEntity
  8
3D-E-LITE-EQPM
100
AcDbVertex
100
AcDbPolyFaceMeshVertex
 10
4.079720735549926
 20
-0.3565619811415672
 30
0.0000000000000212
 70
   192
  0
VERTEX
  5
3C0
330
3A7
100
AcDbEntity
  8
3D-E-LITE-EQPM
100
AcDbFaceRecord
 10
0.0
 20
0.0
 30
0.0
 70
   128
 71
    -1
 72
    20
 73
    21
 74
   -22
  0
VERTEX
  5
3C1
330
3A7
100
AcDbEntity
  8
3D-E-LITE-EQPM
100
AcDbFaceRecord
 10
0.0
 20
0.0
 30
0.0
 70
   128
 71
    23
 72
    24
 73
    -1
 74
    22
  0
VERTEX
  5
3C2
330
3A7
100
AcDbEntity
  8
3D-E-LITE-EQPM
100
AcDbFaceRecord
 10
0.0
 20
0.0
 30
0.0
 70
   128
 71
   -20
 72
    -3
 73
   -15
 74
   -17
  0
VERTEX
  5
3C3
330
3A7
100
AcDbEntity
  8
3D-E-LITE-EQPM
100
AcDbFaceRecord
 10
0.0
 20
0.0
 30
0.0
 70
   128
 71
    17
 72
    18
 73
    19
 74
   -20
  0
VERTEX
  5
3C4
330
3A7
100
AcDbEntity
  8
3D-E-LITE-EQPM
100
AcDbFaceRecord
 10
0.0
 20
0.0
 30
0.0
 70
   128
 71
   -17
 72
    15
 73
    16
  0
VERTEX
  5
3C5
330
3A7
100
AcDbEntity
  8
3D-E-LITE-EQPM
100
AcDbFaceRecord
 10
0.0
 20
0.0
 30
0.0
 70
   128
 71
    -6
 72
    14
 73
   -15
 74
    -3
  0
VERTEX
  5
3C6
330
3A7
100
AcDbEntity
  8
3D-E-LITE-EQPM
100
AcDbFaceRecord
 10
0.0
 20
0.0
 30
0.0
 70
   128
 71
    -3
 72
   -20
 73
     1
 74
     2
  0
VERTEX
  5
3C7
330
3A7
100
AcDbEntity
  8
3D-E-LITE-EQPM
100
AcDbFaceRecord
 10
0.0
 20
0.0
 30
0.0
 70
   128
 71
     3
 72
     4
 73
     5
 74
    -6
  0
VERTEX
  5
3C8
330
3A7
100
AcDbEntity
  8
3D-E-LITE-EQPM
100
AcDbFaceRecord
 10
0.0
 20
0.0
 30
0.0
 70
   128
 71
    -9
 72
   -14
 73
     6
 74
    -7
  0
VERTEX
  5
3C9
330
3A7
100
AcDbEntity
  8
3D-E-LITE-EQPM
100
AcDbFaceRecord
 10
0.0
 20
0.0
 30
0.0
 70
   128
 71
    -9
 72
    11
 73
    12
 74
   -13
  0
VERTEX
  5
3CA
330
3A7
100
AcDbEntity
  8
3D-E-LITE-EQPM
100
AcDbFaceRecord
 10
0.0
 20
0.0
 30
0.0
 70
   128
 71
   -11
 72
     9
 73
    10
  0
VERTEX
  5
3CB
330
3A7
100
AcDbEntity
  8
3D-E-LITE-EQPM
100
AcDbFaceRecord
 10
0.0
 20
0.0
 30
0.0
 70
   128
 71
   -14
 72
    -9
 73
    13
  0
VERTEX
  5
3CC
330
3A7
100
AcDbEntity
  8
3D-E-LITE-EQPM
100
AcDbFaceRecord
 10
0.0
 20
0.0
 30
0.0
 70
   128
 71
     7
 72
     8
 73
    -9
  0
SEQEND
  5
3CD
330
3A7
100
AcDbEntity
  8
3D-E-LITE-EQPM
  0
POLYLINE
  5
3CE
330
75
100
AcDbEntity
  8
3D-E-LITE-EQPM
100
AcDbPolyFaceMesh
 66
     1
 10
0.0
 20
0.0
 30
0.0
 70
    64
 71
    24
 72
    12
1001
REVIT
1002
{
1070
     1
1000
3792
1002
}
1002
{
1070
     4
1000
1597
1002
}
1002
{
1070
     2
1000
-2001120
1002
}
  0
VERTEX
  5
3CF
330
3CE
100
AcDbEntity
  8
3D-E-LITE-EQPM
100
AcDbVertex
100
AcDbPolyFaceMeshVertex
 10
4.245823144912719
 20
0.9051122367382048
 30
-0.2306545749306678
 70
   192
  0
VERTEX
  5
3D0
330
3CE
100
AcDbEntity
  8
3D-E-LITE-EQPM
100
AcDbVertex
100
AcDbPolyFaceMeshVertex
 10
4.079720735549926
 20
-0.3565619811415672
 30
-0.2306545749306678
 70
   192
  0
VERTEX
  5
3D1
330
3CE
100
AcDbEntity
  8
3D-E-LITE-EQPM
100
AcDbVertex
100
AcDbPolyFaceMeshVertex
 10
3.592732787132263
 20
-1.532255172729492
 30
-0.2306545749306678
 70
   192
  0
VERTEX
  5
3D2
330
3CE
100
AcDbEntity
  8
3D-E-LITE-EQPM
100
AcDbVertex
100
AcDbPolyFaceMeshVertex
 10
2.818046450614929
 20
-2.541845798492431
 30
-0.2306545749306678
 70
   192
  0
VERTEX
  5
3D3
330
3CE
100
AcDbEntity
  8
3D-E-LITE-EQPM
100
AcDbVertex
100
AcDbPolyFaceMeshVertex
 10
1.80845582485199
 20
-3.316531777381897
 30
-0.2306545749306678
 70
   192
  0
VERTEX
  5
3D4
330
3CE
100
AcDbEntity
  8
3D-E-LITE-EQPM
100
AcDbVertex
100
AcDbPolyFaceMeshVertex
 10
0.63276270031929
 20
-3.803520083427429
 30
-0.2306545749306678
 70
   192
  0
VERTEX
  5
3D5
330
3CE
100
AcDbEntity
  8
3D-E-LITE-EQPM
100
AcDbVertex
100
AcDbPolyFaceMeshVertex
 10
-0.6289114952087401
 20
-3.969622492790222
 30
-0.2306545749306678
 70
   192
  0
VERTEX
  5
3D6
330
3CE
100
AcDbEntity
  8
3D-E-LITE-EQPM
100
AcDbVertex
100
AcDbPolyFaceMeshVertex
 10
-1.890585601329803
 20
-3.803520083427429
 30
-0.2306545749306678
 70
   192
  0
VERTEX
  5
3D7
330
3CE
100
AcDbEntity
  8
3D-E-LITE-EQPM
100
AcDbVertex
100
AcDbPolyFaceMeshVertex
 10
-3.06627881526947
 20
-3.316531777381897
 30
-0.2306545749306678
 70
   192
  0
VERTEX
  5
3D8
330
3CE
100
AcDbEntity
  8
3D-E-LITE-EQPM
100
AcDbVertex
100
AcDbPolyFaceMeshVertex
 10
-4.075869441032409
 20
-2.541845798492431
 30
-0.2306545749306678
 70
   192
  0
VERTEX
  5
3D9
330
3CE
100
AcDbEntity
  8
3D-E-LITE-EQPM
100
AcDbVertex
100
AcDbPolyFaceMeshVertex
 10
-4.850555419921874
 20
-1.532255172729492
 30
-0.2306545749306678
 70
   192
  0
VERTEX
  5
3DA
330
3CE
100
AcDbEntity
  8
3D-E-LITE-EQPM
100
AcDbVertex
100
AcDbPolyFaceMeshVertex
 10
-5.337543725967406
 20
-0.3565619811415672
 30
-0.2306545749306678
 70
   192
  0
VERTEX
  5
3DB
330
3CE
100
AcDbEntity
  8
3D-E-LITE-EQPM
100
AcDbVertex
100
AcDbPolyFaceMeshVertex
 10
-5.503646135330199
 20
0.9051122367382048
 30
-0.2306545749306678
 70
   192
  0
VERTEX
  5
3DC
330
3CE
100
AcDbEntity
  8
3D-E-LITE-EQPM
100
AcDbVertex
100
AcDbPolyFaceMeshVertex
 10
-5.337543725967406
 20
2.166786432266235
 30
-0.2306545749306678
 70
   192
  0
VERTEX
  5
3DD
330
3CE
100
AcDbEntity
  8
3D-E-LITE-EQPM
100
AcDbVertex
100
AcDbPolyFaceMeshVertex
 10
-4.850555419921874
 20
3.342479467391967
 30
-0.2306545749306678
 70
   192
  0
VERTEX
  5
3DE
330
3CE
100
AcDbEntity
  8
3D-E-LITE-EQPM
100
AcDbVertex
100
AcDbPolyFaceMeshVertex
 10
-4.075869441032409
 20
4.352070093154906
 30
-0.2306545749306678
 70
   192
  0
VERTEX
  5
3DF
330
3CE
100
AcDbEntity
  8
3D-E-LITE-EQPM
100
AcDbVertex
100
AcDbPolyFaceMeshVertex
 10
-3.06627881526947
 20
5.12675642967224
 30
-0.2306545749306678
 70
   192
  0
VERTEX
  5
3E0
330
3CE
100
AcDbEntity
  8
3D-E-LITE-EQPM
100
AcDbVertex
100
AcDbPolyFaceMeshVertex
 10
-1.890585601329803
 20
5.613744378089904
 30
-0.2306545749306678
 70
   192
  0
VERTEX
  5
3E1
330
3CE
100
AcDbEntity
  8
3D-E-LITE-EQPM
100
AcDbVertex
100
AcDbPolyFaceMeshVertex
 10
-0.6289114952087401
 20
5.779846787452697
 30
-0.2306545749306678
 70
   192
  0
VERTEX
  5
3E2
330
3CE
100
AcDbEntity
  8
3D-E-LITE-EQPM
100
AcDbVertex
100
AcDbPolyFaceMeshVertex
 10
0.63276270031929
 20
5.613744378089904
 30
-0.2306545749306678
 70
   192
  0
VERTEX
  5
3E3
330
3CE
100
AcDbEntity
  8
3D-E-LITE-EQPM
100
AcDbVertex
100
AcDbPolyFaceMeshVertex
 10
1.80845582485199
 20
5.12675642967224
 30
-0.2306545749306678
 70
   192
  0
VERTEX
  5
3E4
330
3CE
100
AcDbEntity
  8
3D-E-LITE-EQPM
100
AcDbVertex
100
AcDbPolyFaceMeshVertex
 10
2.818046450614929
 20
4.352070093154906
 30
-0.2306545749306678
 70
   192
  0
VERTEX
  5
3E5
330
3CE
100
AcDbEntity
  8
3D-E-LITE-EQPM
100
AcDbVertex
100
AcDbPolyFaceMeshVertex
 10
3.592732787132263
 20
3.342479467391967
 30
-0.2306545749306678
 70
   192
  0
VERTEX
  5
3E6
330
3CE
100
AcDbEntity
  8
3D-E-LITE-EQPM
100
AcDbVertex
100
AcDbPolyFaceMeshVertex
 10
4.079720735549926
 20
2.166786432266235
 30
-0.2306545749306678
 70
   192
  0
VERTEX
  5
3E7
330
3CE
100
AcDbEntity
  8
3D-E-LITE-EQPM
100
AcDbFaceRecord
 10
0.0
 20
0.0
 30
0.0
 70
   128
 71
    19
 72
   -20
 73
    17
 74
    18
  0
VERTEX
  5
3E8
330
3CE
100
AcDbEntity
  8
3D-E-LITE-EQPM
100
AcDbFaceRecord
 10
0.0
 20
0.0
 30
0.0
 70
   128
 71
    20
 72
    21
 73
    22
 74
   -23
  0
VERTEX
  5
3E9
330
3CE
100
AcDbEntity
  8
3D-E-LITE-EQPM
100
AcDbFaceRecord
 10
0.0
 20
0.0
 30
0.0
 70
   128
 71
   -20
 72
   -11
 73
   -13
 74
   -17
  0
VERTEX
  5
3EA
330
3CE
100
AcDbEntity
  8
3D-E-LITE-EQPM
100
AcDbFaceRecord
 10
0.0
 20
0.0
 30
0.0
 70
   128
 71
   -20
 72
   -23
 73
    -6
 74
   -11
  0
VERTEX
  5
3EB
330
3CE
100
AcDbEntity
  8
3D-E-LITE-EQPM
100
AcDbFaceRecord
 10
0.0
 20
0.0
 30
0.0
 70
   128
 71
   -17
 72
    15
 73
    16
  0
VERTEX
  5
3EC
330
3CE
100
AcDbEntity
  8
3D-E-LITE-EQPM
100
AcDbFaceRecord
 10
0.0
 20
0.0
 30
0.0
 70
   128
 71
    13
 72
    14
 73
   -15
 74
   -17
  0
VERTEX
  5
3ED
330
3CE
100
AcDbEntity
  8
3D-E-LITE-EQPM
100
AcDbFaceRecord
 10
0.0
 20
0.0
 30
0.0
 70
   128
 71
    23
 72
    24
 73
    -1
 74
    -6
  0
VERTEX
  5
3EE
330
3CE
100
AcDbEntity
  8
3D-E-LITE-EQPM
100
AcDbFaceRecord
 10
0.0
 20
0.0
 30
0.0
 70
   128
 71
     1
 72
     2
 73
    -3
 74
    -6
  0
VERTEX
  5
3EF
330
3CE
100
AcDbEntity
  8
3D-E-LITE-EQPM
100
AcDbFaceRecord
 10
0.0
 20
0.0
 30
0.0
 70
   128
 71
     5
 72
    -6
 73
     3
 74
     4
  0
VERTEX
  5
3F0
330
3CE
100
AcDbEntity
  8
3D-E-LITE-EQPM
100
AcDbFaceRecord
 10
0.0
 20
0.0
 30
0.0
 70
   128
 71
     9
 72
    10
 73
   -11
 74
    -6
  0
VERTEX
  5
3F1
330
3CE
100
AcDbEntity
  8
3D-E-LITE-EQPM
100
AcDbFaceRecord
 10
0.0
 20
0.0
 30
0.0
 70
   128
 71
    12
 72
   -13
 73
    11
  0
VERTEX
  5
3F2
330
3CE
100
AcDbEntity
  8
3D-E-LITE-EQPM
100
AcDbFaceRecord
 10
0.0
 20
0.0
 30
0.0
 70
   128
 71
     7
 72
     8
 73
    -9
 74
     6
  0
SEQEND
  5
3F3
330
3CE
100
AcDbEntity
  8
3D-E-LITE-EQPM
  0
POLYLINE
  5
3F4
330
75
100
AcDbEntity
  8
3D-E-LITE-EQPM
100
AcDbPolyFaceMesh
 66
     1
 10
0.0
 20
0.0
 30
0.0
 70
    64
 71
    26
 72
    12
1001
REVIT
1002
{
1070
     1
1000
3792
1002
}
1002
{
1070
     4
1000
1597
1002
}
1002
{
1070
     2
1000
-2001120
1002
}
  0
VERTEX
  5
3F5
330
3F4
100
AcDbEntity
  8
3D-E-LITE-EQPM
100
AcDbVertex
100
AcDbPolyFaceMeshVertex
 10
-5.503646135330199
 20
0.9051122367382048
 30
0.0000000000000212
 70
   192
  0
VERTEX
  5
3F6
330
3F4
100
AcDbEntity
  8
3D-E-LITE-EQPM
100
AcDbVertex
100
AcDbPolyFaceMeshVertex
 10
-5.337543725967406
 20
2.166786432266235
 30
0.0000000000000212
 70
   192
  0
VERTEX
  5
3F7
330
3F4
100
AcDbEntity
  8
3D-E-LITE-EQPM
100
AcDbVertex
100
AcDbPolyFaceMeshVertex
 10
-4.850555419921874
 20
3.342479467391967
 30
0.0000000000000212
 70
   192
  0
VERTEX
  5
3F8
330
3F4
100
AcDbEntity
  8
3D-E-LITE-EQPM
100
AcDbVertex
100
AcDbPolyFaceMeshVertex
 10
-4.075869441032409
 20
4.352070093154906
 30
0.0000000000000212
 70
   192
  0
VERTEX
  5
3F9
330
3F4
100
AcDbEntity
  8
3D-E-LITE-EQPM
100
AcDbVertex
100
AcDbPolyFaceMeshVertex
 10
-3.06627881526947
 20
5.12675642967224
 30
0.0000000000000212
 70
   192
  0
VERTEX
  5
3FA
330
3F4
100
AcDbEntity
  8
3D-E-LITE-EQPM
100
AcDbVertex
100
AcDbPolyFaceMeshVertex
 10
-1.890585601329803
 20
5.613744378089904
 30
0.0000000000000212
 70
   192
  0
VERTEX
  5
3FB
330
3F4
100
AcDbEntity
  8
3D-E-LITE-EQPM
100
AcDbVertex
100
AcDbPolyFaceMeshVertex
 10
-0.6289114952087401
 20
5.779846787452697
 30
0.0000000000000212
 70
   192
  0
VERTEX
  5
3FC
330
3F4
100
AcDbEntity
  8
3D-E-LITE-EQPM
100
AcDbVertex
100
AcDbPolyFaceMeshVertex
 10
0.63276270031929
 20
5.613744378089904
 30
0.0000000000000212
 70
   192
  0
VERTEX
  5
3FD
330
3F4
100
AcDbEntity
  8
3D-E-LITE-EQPM
100
AcDbVertex
100
AcDbPolyFaceMeshVertex
 10
1.80845582485199
 20
5.12675642967224
 30
0.0000000000000212
 70
   192
  0
VERTEX
  5
3FE
330
3F4
100
AcDbEntity
  8
3D-E-LITE-EQPM
100
AcDbVertex
100
AcDbPolyFaceMeshVertex
 10
2.818046450614929
 20
4.352070093154906
 30
0.0000000000000212
 70
   192
  0
VERTEX
  5
3FF
330
3F4
100
AcDbEntity
  8
3D-E-LITE-EQPM
100
AcDbVertex
100
AcDbPolyFaceMeshVertex
 10
3.592732787132263
 20
3.342479467391967
 30
0.0000000000000212
 70
   192
  0
VERTEX
  5
400
330
3F4
100
AcDbEntity
  8
3D-E-LITE-EQPM
100
AcDbVertex
100
AcDbPolyFaceMeshVertex
 10
4.079720735549926
 20
2.166786432266235
 30
0.0000000000000212
 70
   192
  0
VERTEX
  5
401
330
3F4
100
AcDbEntity
  8
3D-E-LITE-EQPM
100
AcDbVertex
100
AcDbPolyFaceMeshVertex
 10
4.245823144912719
 20
0.9051122367382048
 30
0.0000000000000212
 70
   192
  0
VERTEX
  5
402
330
3F4
100
AcDbEntity
  8
3D-E-LITE-EQPM
100
AcDbVertex
100
AcDbPolyFaceMeshVertex
 10
4.245823144912719
 20
0.9051122367382048
 30
-0.2306545749306678
 70
   192
  0
VERTEX
  5
403
330
3F4
100
AcDbEntity
  8
3D-E-LITE-EQPM
100
AcDbVertex
100
AcDbPolyFaceMeshVertex
 10
4.079720735549926
 20
2.166786432266235
 30
-0.2306545749306678
 70
   192
  0
VERTEX
  5
404
330
3F4
100
AcDbEntity
  8
3D-E-LITE-EQPM
100
AcDbVertex
100
AcDbPolyFaceMeshVertex
 10
3.592732787132263
 20
3.342479467391967
 30
-0.2306545749306678
 70
   192
  0
VERTEX
  5
405
330
3F4
100
AcDbEntity
  8
3D-E-LITE-EQPM
100
AcDbVertex
100
AcDbPolyFaceMeshVertex
 10
2.818046450614929
 20
4.352070093154906
 30
-0.2306545749306678
 70
   192
  0
VERTEX
  5
406
330
3F4
100
AcDbEntity
  8
3D-E-LITE-EQPM
100
AcDbVertex
100
AcDbPolyFaceMeshVertex
 10
1.80845582485199
 20
5.12675642967224
 30
-0.2306545749306678
 70
   192
  0
VERTEX
  5
407
330
3F4
100
AcDbEntity
  8
3D-E-LITE-EQPM
100
AcDbVertex
100
AcDbPolyFaceMeshVertex
 10
0.63276270031929
 20
5.613744378089904
 30
-0.2306545749306678
 70
   192
  0
VERTEX
  5
408
330
3F4
100
AcDbEntity
  8
3D-E-LITE-EQPM
100
AcDbVertex
100
AcDbPolyFaceMeshVertex
 10
-0.6289114952087401
 20
5.779846787452697
 30
-0.2306545749306678
 70
   192
  0
VERTEX
  5
409
330
3F4
100
AcDbEntity
  8
3D-E-LITE-EQPM
100
AcDbVertex
100
AcDbPolyFaceMeshVertex
 10
-1.890585601329803
 20
5.613744378089904
 30
-0.2306545749306678
 70
   192
  0
VERTEX
  5
40A
330
3F4
100
AcDbEntity
  8
3D-E-LITE-EQPM
100
AcDbVertex
100
AcDbPolyFaceMeshVertex
 10
-3.06627881526947
 20
5.12675642967224
 30
-0.2306545749306678
 70
   192
  0
VERTEX
  5
40B
330
3F4
100
AcDbEntity
  8
3D-E-LITE-EQPM
100
AcDbVertex
100
AcDbPolyFaceMeshVertex
 10
-4.075869441032409
 20
4.352070093154906
 30
-0.2306545749306678
 70
   192
  0
VERTEX
  5
40C
330
3F4
100
AcDbEntity
  8
3D-E-LITE-EQPM
100
AcDbVertex
100
AcDbPolyFaceMeshVertex
 10
-4.850555419921874
 20
3.342479467391967
 30
-0.2306545749306678
 70
   192
  0
VERTEX
  5
40D
330
3F4
100
AcDbEntity
  8
3D-E-LITE-EQPM
100
AcDbVertex
100
AcDbPolyFaceMeshVertex
 10
-5.337543725967406
 20
2.166786432266235
 30
-0.2306545749306678
 70
   192
  0
VERTEX
  5
40E
330
3F4
100
AcDbEntity
  8
3D-E-LITE-EQPM
100
AcDbVertex
100
AcDbPolyFaceMeshVertex
 10
-5.503646135330199
 20
0.9051122367382048
 30
-0.2306545749306678
 70
   192
  0
VERTEX
  5
40F
330
3F4
100
AcDbEntity
  8
3D-E-LITE-EQPM
100
AcDbFaceRecord
 10
0.0
 20
0.0
 30
0.0
 70
   128
 71
    14
 72
   -15
 73
    12
 74
    13
  0
VERTEX
  5
410
330
3F4
100
AcDbEntity
  8
3D-E-LITE-EQPM
100
AcDbFaceRecord
 10
0.0
 20
0.0
 30
0.0
 70
   128
 71
    15
 72
   -16
 73
    11
 74
   -12
  0
VERTEX
  5
411
330
3F4
100
AcDbEntity
  8
3D-E-LITE-EQPM
100
AcDbFaceRecord
 10
0.0
 20
0.0
 30
0.0
 70
   128
 71
    17
 72
   -18
 73
     9
 74
   -10
  0
VERTEX
  5
412
330
3F4
100
AcDbEntity
  8
3D-E-LITE-EQPM
100
AcDbFaceRecord
 10
0.0
 20
0.0
 30
0.0
 70
   128
 71
    16
 72
   -17
 73
    10
 74
   -11
  0
VERTEX
  5
413
330
3F4
100
AcDbEntity
  8
3D-E-LITE-EQPM
100
AcDbFaceRecord
 10
0.0
 20
0.0
 30
0.0
 70
   128
 71
    18
 72
   -19
 73
     8
 74
    -9
  0
VERTEX
  5
414
330
3F4
100
AcDbEntity
  8
3D-E-LITE-EQPM
100
AcDbFaceRecord
 10
0.0
 20
0.0
 30
0.0
 70
   128
 71
     7
 72
    -8
 73
    19
 74
   -20
  0
VERTEX
  5
415
330
3F4
100
AcDbEntity
  8
3D-E-LITE-EQPM
100
AcDbFaceRecord
 10
0.0
 20
0.0
 30
0.0
 70
   128
 71
    20
 72
   -21
 73
     6
 74
    -7
  0
VERTEX
  5
416
330
3F4
100
AcDbEntity
  8
3D-E-LITE-EQPM
100
AcDbFaceRecord
 10
0.0
 20
0.0
 30
0.0
 70
   128
 71
    21
 72
   -22
 73
     5
 74
    -6
  0
VERTEX
  5
417
330
3F4
100
AcDbEntity
  8
3D-E-LITE-EQPM
100
AcDbFaceRecord
 10
0.0
 20
0.0
 30
0.0
 70
   128
 71
    23
 72
   -24
 73
     3
 74
    -4
  0
VERTEX
  5
418
330
3F4
100
AcDbEntity
  8
3D-E-LITE-EQPM
100
AcDbFaceRecord
 10
0.0
 20
0.0
 30
0.0
 70
   128
 71
    22
 72
   -23
 73
     4
 74
    -5
  0
VERTEX
  5
419
330
3F4
100
AcDbEntity
  8
3D-E-LITE-EQPM
100
AcDbFaceRecord
 10
0.0
 20
0.0
 30
0.0
 70
   128
 71
    24
 72
   -25
 73
     2
 74
    -3
  0
VERTEX
  5
41A
330
3F4
100
AcDbEntity
  8
3D-E-LITE-EQPM
100
AcDbFaceRecord
 10
0.0
 20
0.0
 30
0.0
 70
   128
 71
     1
 72
    -2
 73
    25
 74
    26
  0
SEQEND
  5
41B
330
3F4
100
AcDbEntity
  8
3D-E-LITE-EQPM
  0
POLYLINE
  5
41C
330
75
100
AcDbEntity
  8
3D-E-LITE-EQPM
100
AcDbPolyFaceMesh
 66
     1
 10
0.0
 20
0.0
 30
0.0
 70
    64
 71
    26
 72
    12
1001
REVIT
1002
{
1070
     1
1000
3792
1002
}
1002
{
1070
     4
1000
1597
1002
}
1002
{
1070
     2
1000
-2001120
1002
}
  0
VERTEX
  5
41D
330
41C
100
AcDbEntity
  8
3D-E-LITE-EQPM
100
AcDbVertex
100
AcDbPolyFaceMeshVertex
 10
4.245823144912719
 20
0.9051122367382048
 30
0.0000000000000212
 70
   192
  0
VERTEX
  5
41E
330
41C
100
AcDbEntity
  8
3D-E-LITE-EQPM
100
AcDbVertex
100
AcDbPolyFaceMeshVertex
 10
4.079720735549926
 20
-0.3565619811415672
 30
0.0000000000000212
 70
   192
  0
VERTEX
  5
41F
330
41C
100
AcDbEntity
  8
3D-E-LITE-EQPM
100
AcDbVertex
100
AcDbPolyFaceMeshVertex
 10
3.592732787132263
 20
-1.532255172729492
 30
0.0000000000000212
 70
   192
  0
VERTEX
  5
420
330
41C
100
AcDbEntity
  8
3D-E-LITE-EQPM
100
AcDbVertex
100
AcDbPolyFaceMeshVertex
 10
2.818046450614929
 20
-2.541845798492431
 30
0.0000000000000212
 70
   192
  0
VERTEX
  5
421
330
41C
100
AcDbEntity
  8
3D-E-LITE-EQPM
100
AcDbVertex
100
AcDbPolyFaceMeshVertex
 10
1.80845582485199
 20
-3.316531777381897
 30
0.0000000000000212
 70
   192
  0
VERTEX
  5
422
330
41C
100
AcDbEntity
  8
3D-E-LITE-EQPM
100
AcDbVertex
100
AcDbPolyFaceMeshVertex
 10
0.63276270031929
 20
-3.803520083427429
 30
0.0000000000000212
 70
   192
  0
VERTEX
  5
423
330
41C
100
AcDbEntity
  8
3D-E-LITE-EQPM
100
AcDbVertex
100
AcDbPolyFaceMeshVertex
 10
-0.6289114952087401
 20
-3.969622492790222
 30
0.0000000000000212
 70
   192
  0
VERTEX
  5
424
330
41C
100
AcDbEntity
  8
3D-E-LITE-EQPM
100
AcDbVertex
100
AcDbPolyFaceMeshVertex
 10
-1.890585601329803
 20
-3.803520083427429
 30
0.0000000000000212
 70
   192
  0
VERTEX
  5
425
330
41C
100
AcDbEntity
  8
3D-E-LITE-EQPM
100
AcDbVertex
100
AcDbPolyFaceMeshVertex
 10
-3.06627881526947
 20
-3.316531777381897
 30
0.0000000000000212
 70
   192
  0
VERTEX
  5
426
330
41C
100
AcDbEntity
  8
3D-E-LITE-EQPM
100
AcDbVertex
100
AcDbPolyFaceMeshVertex
 10
-4.075869441032409
 20
-2.541845798492431
 30
0.0000000000000212
 70
   192
  0
VERTEX
  5
427
330
41C
100
AcDbEntity
  8
3D-E-LITE-EQPM
100
AcDbVertex
100
AcDbPolyFaceMeshVertex
 10
-4.850555419921874
 20
-1.532255172729492
 30
0.0000000000000212
 70
   192
  0
VERTEX
  5
428
330
41C
100
AcDbEntity
  8
3D-E-LITE-EQPM
100
AcDbVertex
100
AcDbPolyFaceMeshVertex
 10
-5.337543725967406
 20
-0.3565619811415672
 30
0.0000000000000212
 70
   192
  0
VERTEX
  5
429
330
41C
100
AcDbEntity
  8
3D-E-LITE-EQPM
100
AcDbVertex
100
AcDbPolyFaceMeshVertex
 10
-5.503646135330199
 20
0.9051122367382048
 30
0.0000000000000212
 70
   192
  0
VERTEX
  5
42A
330
41C
100
AcDbEntity
  8
3D-E-LITE-EQPM
100
AcDbVertex
100
AcDbPolyFaceMeshVertex
 10
-5.503646135330199
 20
0.9051122367382048
 30
-0.2306545749306678
 70
   192
  0
VERTEX
  5
42B
330
41C
100
AcDbEntity
  8
3D-E-LITE-EQPM
100
AcDbVertex
100
AcDbPolyFaceMeshVertex
 10
-5.337543725967406
 20
-0.3565619811415672
 30
-0.2306545749306678
 70
   192
  0
VERTEX
  5
42C
330
41C
100
AcDbEntity
  8
3D-E-LITE-EQPM
100
AcDbVertex
100
AcDbPolyFaceMeshVertex
 10
-4.850555419921874
 20
-1.532255172729492
 30
-0.2306545749306678
 70
   192
  0
VERTEX
  5
42D
330
41C
100
AcDbEntity
  8
3D-E-LITE-EQPM
100
AcDbVertex
100
AcDbPolyFaceMeshVertex
 10
-4.075869441032409
 20
-2.541845798492431
 30
-0.2306545749306678
 70
   192
  0
VERTEX
  5
42E
330
41C
100
AcDbEntity
  8
3D-E-LITE-EQPM
100
AcDbVertex
100
AcDbPolyFaceMeshVertex
 10
-3.06627881526947
 20
-3.316531777381897
 30
-0.2306545749306678
 70
   192
  0
VERTEX
  5
42F
330
41C
100
AcDbEntity
  8
3D-E-LITE-EQPM
100
AcDbVertex
100
AcDbPolyFaceMeshVertex
 10
-1.890585601329803
 20
-3.803520083427429
 30
-0.2306545749306678
 70
   192
  0
VERTEX
  5
430
330
41C
100
AcDbEntity
  8
3D-E-LITE-EQPM
100
AcDbVertex
100
AcDbPolyFaceMeshVertex
 10
-0.6289114952087401
 20
-3.969622492790222
 30
-0.2306545749306678
 70
   192
  0
VERTEX
  5
431
330
41C
100
AcDbEntity
  8
3D-E-LITE-EQPM
100
AcDbVertex
100
AcDbPolyFaceMeshVertex
 10
0.63276270031929
 20
-3.803520083427429
 30
-0.2306545749306678
 70
   192
  0
VERTEX
  5
432
330
41C
100
AcDbEntity
  8
3D-E-LITE-EQPM
100
AcDbVertex
100
AcDbPolyFaceMeshVertex
 10
1.80845582485199
 20
-3.316531777381897
 30
-0.2306545749306678
 70
   192
  0
VERTEX
  5
433
330
41C
100
AcDbEntity
  8
3D-E-LITE-EQPM
100
AcDbVertex
100
AcDbPolyFaceMeshVertex
 10
2.818046450614929
 20
-2.541845798492431
 30
-0.2306545749306678
 70
   192
  0
VERTEX
  5
434
330
41C
100
AcDbEntity
  8
3D-E-LITE-EQPM
100
AcDbVertex
100
AcDbPolyFaceMeshVertex
 10
3.592732787132263
 20
-1.532255172729492
 30
-0.2306545749306678
 70
   192
  0
VERTEX
  5
435
330
41C
100
AcDbEntity
  8
3D-E-LITE-EQPM
100
AcDbVertex
100
AcDbPolyFaceMeshVertex
 10
4.079720735549926
 20
-0.3565619811415672
 30
-0.2306545749306678
 70
   192
  0
VERTEX
  5
436
330
41C
100
AcDbEntity
  8
3D-E-LITE-EQPM
100
AcDbVertex
100
AcDbPolyFaceMeshVertex
 10
4.245823144912719
 20
0.9051122367382048
 30
-0.2306545749306678
 70
   192
  0
VERTEX
  5
437
330
41C
100
AcDbEntity
  8
3D-E-LITE-EQPM
100
AcDbFaceRecord
 10
0.0
 20
0.0
 30
0.0
 70
   128
 71
    14
 72
   -15
 73
    12
 74
    13
  0
VERTEX
  5
438
330
41C
100
AcDbEntity
  8
3D-E-LITE-EQPM
100
AcDbFaceRecord
 10
0.0
 20
0.0
 30
0.0
 70
   128
 71
    15
 72
   -16
 73
    11
 74
   -12
  0
VERTEX
  5
439
330
41C
100
AcDbEntity
  8
3D-E-LITE-EQPM
100
AcDbFaceRecord
 10
0.0
 20
0.0
 30
0.0
 70
   128
 71
    17
 72
   -18
 73
     9
 74
   -10
  0
VERTEX
  5
43A
330
41C
100
AcDbEntity
  8
3D-E-LITE-EQPM
100
AcDbFaceRecord
 10
0.0
 20
0.0
 30
0.0
 70
   128
 71
    16
 72
   -17
 73
    10
 74
   -11
  0
VERTEX
  5
43B
330
41C
100
AcDbEntity
  8
3D-E-LITE-EQPM
100
AcDbFaceRecord
 10
0.0
 20
0.0
 30
0.0
 70
   128
 71
    18
 72
   -19
 73
     8
 74
    -9
  0
VERTEX
  5
43C
330
41C
100
AcDbEntity
  8
3D-E-LITE-EQPM
100
AcDbFaceRecord
 10
0.0
 20
0.0
 30
0.0
 70
   128
 71
     7
 72
    -8
 73
    19
 74
   -20
  0
VERTEX
  5
43D
330
41C
100
AcDbEntity
  8
3D-E-LITE-EQPM
100
AcDbFaceRecord
 10
0.0
 20
0.0
 30
0.0
 70
   128
 71
    20
 72
   -21
 73
     6
 74
    -7
  0
VERTEX
  5
43E
330
41C
100
AcDbEntity
  8
3D-E-LITE-EQPM
100
AcDbFaceRecord
 10
0.0
 20
0.0
 30
0.0
 70
   128
 71
    21
 72
   -22
 73
     5
 74
    -6
  0
VERTEX
  5
43F
330
41C
100
AcDbEntity
  8
3D-E-LITE-EQPM
100
AcDbFaceRecord
 10
0.0
 20
0.0
 30
0.0
 70
   128
 71
    23
 72
   -24
 73
     3
 74
    -4
  0
VERTEX
  5
440
330
41C
100
AcDbEntity
  8
3D-E-LITE-EQPM
100
AcDbFaceRecord
 10
0.0
 20
0.0
 30
0.0
 70
   128
 71
    22
 72
   -23
 73
     4
 74
    -5
  0
VERTEX
  5
441
330
41C
100
AcDbEntity
  8
3D-E-LITE-EQPM
100
AcDbFaceRecord
 10
0.0
 20
0.0
 30
0.0
 70
   128
 71
    24
 72
   -25
 73
     2
 74
    -3
  0
VERTEX
  5
442
330
41C
100
AcDbEntity
  8
3D-E-LITE-EQPM
100
AcDbFaceRecord
 10
0.0
 20
0.0
 30
0.0
 70
   128
 71
     1
 72
    -2
 73
    25
 74
    26
  0
SEQEND
  5
443
330
41C
100
AcDbEntity
  8
3D-E-LITE-EQPM
  0
ENDSEC
  0
SECTION
  2
OBJECTS
  0
DICTIONARY
  5
C
330
0
100
AcDbDictionary
  3
ACAD_COLOR
350
6B
  3
ACAD_GROUP
350
D
  3
ACAD_LAYOUT
350
6A
  3
ACAD_MATERIAL
350
10
  3
ACAD_MLEADERSTYLE
350
6E
  3
ACAD_MLINESTYLE
350
67
  3
ACAD_PLOTSETTINGS
350
69
  3
ACAD_SCALELIST
350
3A
  3
ACAD_VISUALSTYLE
350
29
  3
ACDB_RECOMPOSE_DATA
350
457
  3
ACDBHEADERROUNDTRIPXREC
350
476
  3
ACDBVARIABLEDICTIONARY
350
46A
  3
REVIT_DICTIONARY
350
451
  0
DICTIONARY
  5
49A
330
8
100
AcDbDictionary
280
     1
  3
ACAD_XREC_ROUNDTRIP
360
49B
  0
DICTIONARY
  5
464
330
444
100
AcDbDictionary
280
     1
  3
ACAD_XREC_ROUNDTRIP
360
465
  0
DICTIONARY
  5
6B
102
{ACAD_REACTORS
330
C
102
}
330
C
100
AcDbDictionary
  0
DICTIONARY
  5
D
102
{ACAD_REACTORS
330
C
102
}
330
C
100
AcDbDictionary
  0
DICTIONARY
  5
6A
102
{ACAD_REACTORS
330
C
102
}
330
C
100
AcDbDictionary
  0
DICTIONARY
  5
10
102
{ACAD_REACTORS
330
C
102
}
330
C
100
AcDbDictionary
  3
BYBLOCK
350
19
  3
BYLAYER
350
11
  3
GLOBAL
350
21
  3
REVITMATERIALDEFINITION1597
350
44E
  3
REVITMATERIALDEFINITION1601
350
44B
  3
REVITMATERIALDEFINITION2774
350
445
  3
REVITMATERIALDEFINITION908
350
448
  0
DICTIONARY
  5
6E
102
{ACAD_REACTORS
330
C
102
}
330
C
100
AcDbDictionary
  3
STANDARD
350
6F
  0
DICTIONARY
  5
67
102
{ACAD_REACTORS
330
C
102
}
330
C
100
AcDbDictionary
  3
STANDARD
350
68
  0
DICTIONARY
  5
69
102
{ACAD_REACTORS
330
C
102
}
330
C
100
AcDbDictionary
  0
DICTIONARY
  5
3A
102
{ACAD_REACTORS
330
C
102
}
330
C
100
AcDbDictionary
  3
A0
350
3B
  3
A1
350
3C
  3
A2
350
3D
  3
A3
350
3E
  3
A4
350
3F
  3
A5
350
40
  3
A6
350
41
  3
A7
350
42
  3
A8
350
43
  3
A9
350
44
  3
B0
350
45
  3
B1
350
46
  3
B2
350
47
  3
B3
350
48
  3
B4
350
49
  3
B5
350
4A
  3
B6
350
4B
  3
B7
350
4C
  3
B8
350
4D
  3
B9
350
4E
  3
C0
350
4F
  3
C1
350
50
  3
C2
350
51
  3
C3
350
52
  3
C4
350
53
  3
C5
350
54
  3
C6
350
55
  3
C7
350
56
  3
C8
350
57
  3
C9
350
58
  3
D0
350
59
  3
D1
350
5A
  3
D2
350
5B
  0
DICTIONARY
  5
29
102
{ACAD_REACTORS
330
C
102
}
330
C
100
AcDbDictionary
  3
2DWIREFRAME
350
2F
  3
3D_HIDDEN
350
31
  3
3DWIREFRAME
350
30
  3
BASIC
350
2E
  3
BRIGHTEN
350
35
  3
COLORCHANGE
350
39
  3
CONCEPTUAL
350
32
  3
DIM
350
34
  3
FACEPATTERN
350
38
  3
FLAT
350
2A
  3
FLATWITHEDGES
350
2B
  3
GOURAUD
350
2C
  3
GOURAUDWITHEDGES
350
2D
  3
LINEPATTERN
350
37
  3
REALISTIC
350
33
  3
THICKEN
350
36
  0
XRECORD
  5
457
102
{ACAD_REACTORS
330
C
102
}
330
C
100
AcDbXrecord
 90
        1
330
6D
  0
DICTIONARY
  5
476
102
{ACAD_REACTORS
330
C
102
}
330
C
100
AcDbDictionary
  3
CEPSNTYPE
350
47F
  3
COLORDICT
350
498
  3
DIMSTYLEDATA
350
495
  3
FINGERPRINTGUID
350
480
  3
HYPERLINKBASE
350
479
  3
INSUNITS
350
47E
  3
LAYOUTDICT
350
47B
  3
LWETCUNION
350
47D
  3
MATERIALDICT
350
499
  3
PLOTSETDICT
350
47C
  3
PSVPSCALE
350
482
  3
PUCSBASE
350
485
  3
PUCSORGBACK
350
48B
  3
PUCSORGBOTTOM
350
487
  3
PUCSORGFRONT
350
48A
  3
PUCSORGLEFT
350
488
  3
PUCSORGRIGHT
350
489
  3
PUCSORGTOP
350
486
  3
PUCSORTHOREF
350
483
  3
PUCSORTHOVIEW
350
484
  3
STYLESHEET
350
47A
  3
TSTACKALIGN
350
477
  3
TSTACKSIZE
350
478
  3
UCSBASE
350
48E
  3
UCSORGBACK
350
494
  3
UCSORGBOTTOM
350
490
  3
UCSORGFRONT
350
493
  3
UCSORGLEFT
350
491
  3
UCSORGRIGHT
350
492
  3
UCSORGTOP
350
48F
  3
UCSORTHOREF
350
48C
  3
UCSORTHOVIEW
350
48D
  3
VERSIONGUID
350
481
  0
DICTIONARY
  5
46A
102
{ACAD_REACTORS
330
C
102
}
330
C
100
AcDbDictionary
  3
CANNOSCALE
350
497
  3
CMLEADERSTYLE
350
46C
  3
DIMASSOC
350
475
  3
HIDETEXT
350
474
  3
INDEXCTL
350
473
  3
LAYEREVAL
350
470
  3
LAYERNOTIFY
350
471
  3
LIGHTINGUNITS
350
46F
  3
MSLTSCALE
350
46D
  3
SORTENTS
350
472
  0
DICTIONARY
  5
451
102
{ACAD_REACTORS
330
C
102
}
330
C
100
AcDbDictionary
  3
REVIT_CATEGORY_MAPPING
350
453
  3
REVIT_SUB_CATEGORY_MAPPING
350
454
  3
REVIT_TYPE_MAPPING
350
452
  0
XRECORD
  5
49B
102
{ACAD_REACTORS
330
49A
102
}
330
49A
100
AcDbXrecord
102
VTR_0.000_0.000_1.000_1.000_VISUALSTYLE
340
2D
102
VTR_0.000_0.000_1.000_1.000_GRIDDISPLAY
 70
     3
102
VTR_0.000_0.000_1.000_1.000_GRIDMAJOR
 70
     5
102
VTR_0.000_0.000_1.000_1.000_DEFAULTLIGHTING
280
     1
102
VTR_0.000_0.000_1.000_1.000_DEFAULTLIGHTINGTYPE
 70
     1
102
VTR_0.000_0.000_1.000_1.000_BRIGHTNESS
141
0.0
102
VTR_0.000_0.000_1.000_1.000_CONTRAST
142
0.0
  0
XRECORD
  5
465
102
{ACAD_REACTORS
330
464
102
}
330
464
100
AcDbXrecord
102
VISUALSTYLENONE
 70
     1
  0
MATERIAL
  5
19
102
{ACAD_REACTORS
330
10
102
}
102
{ACAD_XDICTIONARY
360
49C
102
}
330
10
100
AcDbMaterial
  1
ByBlock
 72
     0
 73
     2
 43
0.0208333333333333
 43
0.0
 43
0.0
 43
0.0
 43
0.0
 43
0.0208333333333333
 43
0.0
 43
0.0
 43
0.0
 43
0.0
 43
1.0
 43
0.0
 43
0.0
 43
0.0
 43
0.0
 43
1.0
 77
     0
 78
     2
 47
0.0208333333333333
 47
0.0
 47
0.0
 47
0.0
 47
0.0
 47
0.0208333333333333
 47
0.0
 47
0.0
 47
0.0
 47
0.0
 47
1.0
 47
0.0
 47
0.0
 47
0.0
 47
0.0
 47
1.0
171
     0
172
     2
 49
0.0208333333333333
 49
0.0
 49
0.0
 49
0.0
 49
0.0
 49
0.0208333333333333
 49
0.0
 49
0.0
 49
0.0
 49
0.0
 49
1.0
 49
0.0
 49
0.0
 49
0.0
 49
0.0
 49
1.0
175
     0
176
     2
142
0.0208333333333333
142
0.0
142
0.0
142
0.0
142
0.0
142
0.0208333333333333
142
0.0
142
0.0
142
0.0
142
0.0
142
1.0
142
0.0
142
0.0
142
0.0
142
0.0
142
1.0
179
     0
270
     2
144
0.0208333333333333
144
0.0
144
0.0
144
0.0
144
0.0
144
0.0208333333333333
144
0.0
144
0.0
144
0.0
144
0.0
144
1.0
144
0.0
144
0.0
144
0.0
144
0.0
144
1.0
274
     2
147
0.0208333333333333
147
0.0
147
0.0
147
0.0
147
0.0
147
0.0208333333333333
147
0.0
147
0.0
147
0.0
147
0.0
147
1.0
147
0.0
147
0.0
147
0.0
147
0.0
147
1.0
  0
MATERIAL
  5
11
102
{ACAD_REACTORS
330
10
102
}
102
{ACAD_XDICTIONARY
360
49E
102
}
330
10
100
AcDbMaterial
  1
ByLayer
 72
     0
 73
     2
 43
0.0208333333333333
 43
0.0
 43
0.0
 43
0.0
 43
0.0
 43
0.0208333333333333
 43
0.0
 43
0.0
 43
0.0
 43
0.0
 43
1.0
 43
0.0
 43
0.0
 43
0.0
 43
0.0
 43
1.0
 77
     0
 78
     2
 47
0.0208333333333333
 47
0.0
 47
0.0
 47
0.0
 47
0.0
 47
0.0208333333333333
 47
0.0
 47
0.0
 47
0.0
 47
0.0
 47
1.0
 47
0.0
 47
0.0
 47
0.0
 47
0.0
 47
1.0
171
     0
172
     2
 49
0.0208333333333333
 49
0.0
 49
0.0
 49
0.0
 49
0.0
 49
0.0208333333333333
 49
0.0
 49
0.0
 49
0.0
 49
0.0
 49
1.0
 49
0.0
 49
0.0
 49
0.0
 49
0.0
 49
1.0
175
     0
176
     2
142
0.0208333333333333
142
0.0
142
0.0
142
0.0
142
0.0
142
0.0208333333333333
142
0.0
142
0.0
142
0.0
142
0.0
142
1.0
142
0.0
142
0.0
142
0.0
142
0.0
142
1.0
179
     0
270
     2
144
0.0208333333333333
144
0.0
144
0.0
144
0.0
144
0.0
144
0.0208333333333333
144
0.0
144
0.0
144
0.0
144
0.0
144
1.0
144
0.0
144
0.0
144
0.0
144
0.0
144
1.0
274
     2
147
0.0208333333333333
147
0.0
147
0.0
147
0.0
147
0.0
147
0.0208333333333333
147
0.0
147
0.0
147
0.0
147
0.0
147
1.0
147
0.0
147
0.0
147
0.0
147
0.0
147
1.0
  0
MATERIAL
  5
21
102
{ACAD_REACTORS
330
10
102
}
102
{ACAD_XDICTIONARY
360
4A0
102
}
330
10
100
AcDbMaterial
  1
Global
 72
     0
 73
     2
 43
0.0208333333333333
 43
0.0
 43
0.0
 43
0.0
 43
0.0
 43
0.0208333333333333
 43
0.0
 43
0.0
 43
0.0
 43
0.0
 43
1.0
 43
0.0
 43
0.0
 43
0.0
 43
0.0
 43
1.0
 77
     0
 78
     2
 47
0.0208333333333333
 47
0.0
 47
0.0
 47
0.0
 47
0.0
 47
0.0208333333333333
 47
0.0
 47
0.0
 47
0.0
 47
0.0
 47
1.0
 47
0.0
 47
0.0
 47
0.0
 47
0.0
 47
1.0
171
     0
172
     2
 49
0.0208333333333333
 49
0.0
 49
0.0
 49
0.0
 49
0.0
 49
0.0208333333333333
 49
0.0
 49
0.0
 49
0.0
 49
0.0
 49
1.0
 49
0.0
 49
0.0
 49
0.0
 49
0.0
 49
1.0
175
     0
176
     2
142
0.0208333333333333
142
0.0
142
0.0
142
0.0
142
0.0
142
0.0208333333333333
142
0.0
142
0.0
142
0.0
142
0.0
142
1.0
142
0.0
142
0.0
142
0.0
142
0.0
142
1.0
179
     0
270
     2
144
0.0208333333333333
144
0.0
144
0.0
144
0.0
144
0.0
144
0.0208333333333333
144
0.0
144
0.0
144
0.0
144
0.0
144
1.0
144
0.0
144
0.0
144
0.0
144
0.0
144
1.0
274
     2
147
0.0208333333333333
147
0.0
147
0.0
147
0.0
147
0.0
147
0.0208333333333333
147
0.0
147
0.0
147
0.0
147
0.0
147
1.0
147
0.0
147
0.0
147
0.0
147
0.0
147
1.0
  0
MATERIAL
  5
44E
102
{ACAD_REACTORS
330
10
102
}
102
{ACAD_XDICTIONARY
360
44F
102
}
330
10
100
AcDbMaterial
  1
RevitMaterialDefinition1597
 70
     1
 90
-1023936521
 71
     1
 91
-1023936521
  3
C:\Users\Robert\AppData\Local\Temp
 44
0.09375
 76
     1
 45
0.09375
 92
-1040187392
 77
     0
 78
     2
172
     2
140
0.1600000262260437
175
     0
176
     2
270
     2
145
0.0
274
     2
  0
MATERIAL
  5
44B
102
{ACAD_REACTORS
330
10
102
}
102
{ACAD_XDICTIONARY
360
44C
102
}
330
10
100
AcDbMaterial
  1
RevitMaterialDefinition1601
 70
     1
 90
-1023804935
 71
     1
 91
-1023804935
  3
C:\Users\Robert\AppData\Local\Temp
 44
1.0
 76
     1
 92
-1040187392
 77
     0
 78
     2
172
     2
175
     0
176
     2
270
     2
145
0.0
274
     2
  0
MATERIAL
  5
445
102
{ACAD_REACTORS
330
10
102
}
102
{ACAD_XDICTIONARY
360
446
102
}
330
10
100
AcDbMaterial
  1
RevitMaterialDefinition2774
 70
     1
 90
-1023410432
 71
     1
 91
-1023410432
  3
C:\Users\Robert\AppData\Local\Temp
 76
     1
 45
0.5
 92
-1040187392
 77
     0
 78
     2
172
     2
140
0.25
175
     0
176
     2
270
     2
145
0.0
274
     2
  0
MATERIAL
  5
448
102
{ACAD_REACTORS
330
10
102
}
102
{ACAD_XDICTIONARY
360
449
102
}
330
10
100
AcDbMaterial
  1
RevitMaterialDefinition908
 70
     1
 90
-1029594974
 71
     1
 91
-1029594974
  3
C:\Users\Robert\AppData\Local\Temp
 44
1.0
 76
     1
 92
-1040187392
 77
     0
 78
     2
172
     2
175
     0
176
     2
270
     2
145
0.0
274
     2
  0
ACAD_PROXY_OBJECT
  5
6F
102
{ACAD_REACTORS
330
6E
102
}
330
6E
100
AcDbProxyObject
 90
      499
 91
      505
 93
      610
310
40901902A4063FBFFFFFE056BD1B81E855B9FC0AD7A3703D0AD73F4214DD185B99185C9900AD7A3703D0AC73F90141901A02B5E8DC0F42B1CFC02B5E8DC0F42B1CFE5764000000000000300FC0
340
63
340
0
340
5D
340
0
 94
        0
1001
ACAD_MLEADERVER
1070
     2
  0
MLINESTYLE
  5
68
102
{ACAD_REACTORS
330
67
102
}
330
67
100
AcDbMlineStyle
  2
STANDARD
 70
     0
  3

 62
   256
 51
90.0
 52
90.0
 71
     2
 49
0.5
 62
   256
  6
BYLAYER
 49
-0.5
 62
   256
  6
BYLAYER
  0
ACAD_PROXY_OBJECT
  5
3B
102
{ACAD_REACTORS
330
3A
102
}
330
3A
100
AcDbProxyObject
 90
      499
 91
      503
 93
       41
310
903313A31580
  0
ACAD_PROXY_OBJECT
  5
3C
102
{ACAD_REACTORS
330
3A
102
}
330
3A
100
AcDbProxyObject
 90
      499
 91
      503
 93
      105
310
903313A324000000000000004000
  0
ACAD_PROXY_OBJECT
  5
3D
102
{ACAD_REACTORS
330
3A
102
}
330
3A
100
AcDbProxyObject
 90
      499
 91
      503
 93
      105
310
903313A344000000000000104000
  0
ACAD_PROXY_OBJECT
  5
3E
102
{ACAD_REACTORS
330
3A
102
}
330
3A
100
AcDbProxyObject
 90
      499
 91
      503
 93
      105
310
903313A354000000000000144000
  0
ACAD_PROXY_OBJECT
  5
3F
102
{ACAD_REACTORS
330
3A
102
}
330
3A
100
AcDbProxyObject
 90
      499
 91
      503
 93
      105
310
903313A384000000000000204000
  0
ACAD_PROXY_OBJECT
  5
40
102
{ACAD_REACTORS
330
3A
102
}
330
3A
100
AcDbProxyObject
 90
      499
 91
      503
 93
      113
310
904313A31304000000000000244000
  0
ACAD_PROXY_OBJECT
  5
41
102
{ACAD_REACTORS
330
3A
102
}
330
3A
100
AcDbProxyObject
 90
      499
 91
      503
 93
      113
310
904313A31364000000000000304000
  0
ACAD_PROXY_OBJECT
  5
42
102
{ACAD_REACTORS
330
3A
102
}
330
3A
100
AcDbProxyObject
 90
      499
 91
      503
 93
      113
310
904313A32304000000000000344000
  0
ACAD_PROXY_OBJECT
  5
43
102
{ACAD_REACTORS
330
3A
102
}
330
3A
100
AcDbProxyObject
 90
      499
 91
      503
 93
      113
310
904313A333040000000000003E4000
  0
ACAD_PROXY_OBJECT
  5
44
102
{ACAD_REACTORS
330
3A
102
}
330
3A
100
AcDbProxyObject
 90
      499
 91
      503
 93
      113
310
904313A34304000000000000444000
  0
ACAD_PROXY_OBJECT
  5
45
102
{ACAD_REACTORS
330
3A
102
}
330
3A
100
AcDbProxyObject
 90
      499
 91
      503
 93
      113
310
904313A35304000000000000494000
  0
ACAD_PROXY_OBJECT
  5
46
102
{ACAD_REACTORS
330
3A
102
}
330
3A
100
AcDbProxyObject
 90
      499
 91
      503
 93
      121
310
905313A3130304000000000000594000
  0
ACAD_PROXY_OBJECT
  5
47
102
{ACAD_REACTORS
330
3A
102
}
330
3A
100
AcDbProxyObject
 90
      499
 91
      503
 93
      105
310
903323A310000000000000010100
  0
ACAD_PROXY_OBJECT
  5
48
102
{ACAD_REACTORS
330
3A
102
}
330
3A
100
AcDbProxyObject
 90
      499
 91
      503
 93
      105
310
903343A310000000000000410100
  0
ACAD_PROXY_OBJECT
  5
49
102
{ACAD_REACTORS
330
3A
102
}
330
3A
100
AcDbProxyObject
 90
      499
 91
      503
 93
      105
310
903383A310000000000000810100
  0
ACAD_PROXY_OBJECT
  5
4A
102
{ACAD_REACTORS
330
3A
102
}
330
3A
100
AcDbProxyObject
 90
      499
 91
      503
 93
      113
310
90431303A310000000000000910100
  0
ACAD_PROXY_OBJECT
  5
4B
102
{ACAD_REACTORS
330
3A
102
}
330
3A
100
AcDbProxyObject
 90
      499
 91
      503
 93
      121
310
9053130303A310000000000001650100
  0
ACAD_PROXY_OBJECT
  5
4C
102
{ACAD_REACTORS
330
3A
102
}
330
3A
100
AcDbProxyObject
 90
      499
 91
      503
 93
      257
310
90E312F31323822203D2031272D3022000000000000200FC000000000000284000
  0
ACAD_PROXY_OBJECT
  5
4D
102
{ACAD_REACTORS
330
3A
102
}
330
3A
100
AcDbProxyObject
 90
      499
 91
      503
 93
      249
310
90D312F363422203D2031272D3022000000000000240FC000000000000284000
  0
ACAD_PROXY_OBJECT
  5
4E
102
{ACAD_REACTORS
330
3A
102
}
330
3A
100
AcDbProxyObject
 90
      499
 91
      503
 93
      249
310
90D312F333222203D2031272D3022000000000000280FC000000000000284000
  0
ACAD_PROXY_OBJECT
  5
4F
102
{ACAD_REACTORS
330
3A
102
}
330
3A
100
AcDbProxyObject
 90
      499
 91
      503
 93
      249
310
90D312F313622203D2031272D30220000000000002C0FC000000000000284000
  0
ACAD_PROXY_OBJECT
  5
50
102
{ACAD_REACTORS
330
3A
102
}
330
3A
100
AcDbProxyObject
 90
      499
 91
      503
 93
      249
310
90D332F333222203D2031272D30220000000000002E0FC000000000000284000
  0
ACAD_PROXY_OBJECT
  5
51
102
{ACAD_REACTORS
330
3A
102
}
330
3A
100
AcDbProxyObject
 90
      499
 91
      503
 93
      241
310
90C312F3822203D2031272D3022000000000000300FC000000000000284000
  0
ACAD_PROXY_OBJECT
  5
52
102
{ACAD_REACTORS
330
3A
102
}
330
3A
100
AcDbProxyObject
 90
      499
 91
      503
 93
      249
310
90D332F313622203D2031272D3022000000000000320FC000000000000284000
  0
ACAD_PROXY_OBJECT
  5
53
102
{ACAD_REACTORS
330
3A
102
}
330
3A
100
AcDbProxyObject
 90
      499
 91
      503
 93
      241
310
90C312F3422203D2031272D3022000000000000340FC000000000000284000
  0
ACAD_PROXY_OBJECT
  5
54
102
{ACAD_REACTORS
330
3A
102
}
330
3A
100
AcDbProxyObject
 90
      499
 91
      503
 93
      241
310
90C332F3822203D2031272D3022000000000000360FC000000000000284000
  0
ACAD_PROXY_OBJECT
  5
55
102
{ACAD_REACTORS
330
3A
102
}
330
3A
100
AcDbProxyObject
 90
      499
 91
      503
 93
      241
310
90C312F3222203D2031272D3022000000000000380FC000000000000284000
  0
ACAD_PROXY_OBJECT
  5
56
102
{ACAD_REACTORS
330
3A
102
}
330
3A
100
AcDbProxyObject
 90
      499
 91
      503
 93
      241
310
90C332F3422203D2031272D30220000000000003A0FC000000000000284000
  0
ACAD_PROXY_OBJECT
  5
57
102
{ACAD_REACTORS
330
3A
102
}
330
3A
100
AcDbProxyObject
 90
      499
 91
      503
 93
      161
310
90A3122203D2031272D30224000000000000284000
  0
ACAD_PROXY_OBJECT
  5
58
102
{ACAD_REACTORS
330
3A
102
}
330
3A
100
AcDbProxyObject
 90
      499
 91
      503
 93
      257
310
90E312D312F3222203D2031272D30220000000000003E0FC000000000000284000
  0
ACAD_PROXY_OBJECT
  5
59
102
{ACAD_REACTORS
330
3A
102
}
330
3A
100
AcDbProxyObject
 90
      499
 91
      503
 93
      225
310
90A3322203D2031272D302200000000000002100000000000000284000
  0
ACAD_PROXY_OBJECT
  5
5A
102
{ACAD_REACTORS
330
3A
102
}
330
3A
100
AcDbProxyObject
 90
      499
 91
      503
 93
      225
310
90A3622203D2031272D302200000000000006100000000000000284000
  0
ACAD_PROXY_OBJECT
  5
5B
102
{ACAD_REACTORS
330
3A
102
}
330
3A
100
AcDbProxyObject
 90
      499
 91
      503
 93
      249
310
90D31272D3022203D2031272D30220000000000000A100000000000000284000
  0
ACAD_PROXY_OBJECT
  5
2F
102
{ACAD_REACTORS
330
29
102
}
330
29
100
AcDbProxyObject
 90
      499
 91
      502
 93
      436
310
42CC9915DA5C99599C985B595049028333333333333E3BF0000000000000FB0107901411070040501600405405064090741402480A0340
1001
ACAD
1000
AcDbSavedByObjectVersion
1070
     0
  0
ACAD_PROXY_OBJECT
  5
31
102
{ACAD_REACTORS
330
29
102
}
330
29
100
AcDbProxyObject
 90
      499
 91
      502
 93
      500
310
424CD108121A5919195B90640502408333333333333E3BF0000000000000FB01079024090700405020000000000001110200405405064090740C02480A0340
1001
ACAD
1000
AcDbSavedByObjectVersion
1070
     0
  0
ACAD_PROXY_OBJECT
  5
30
102
{ACAD_REACTORS
330
29
102
}
330
29
100
AcDbProxyObject
 90
      499
 91
      502
 93
      436
310
42CCD915DA5C99599C985B595059028333333333333E3BF0000000000000FB0107901411070040501600405405064090741402480A0340
1001
ACAD
1000
AcDbSavedByObjectVersion
1070
     0
  0
ACAD_PROXY_OBJECT
  5
2E
102
{ACAD_REACTORS
330
29
102
}
330
29
100
AcDbProxyObject
 90
      499
 91
      502
 93
      388
310
4150985CDA58D07406404333333333333E3BF0000000000000FB0107A41107004050150841D405064090741402480A0350
1001
ACAD
1000
AcDbSavedByObjectVersion
1070
     0
  0
ACAD_PROXY_OBJECT
  5
35
102
{ACAD_REACTORS
330
29
102
}
330
29
100
AcDbProxyObject
 90
      499
 91
      502
 93
      428
310
42109C9A59DA1D195B90C409028333333333333E3BF0000000000000FB010790141107004050150841D405064090741402480A029950
1001
ACAD
1000
AcDbSavedByObjectVersion
1070
     0
  0
ACAD_PROXY_OBJECT
  5
39
102
{ACAD_REACTORS
330
29
102
}
330
29
100
AcDbProxyObject
 90
      499
 91
      502
 93
      452
310
42D0DBDB1BDC90DA185B99D95104090240C333333333333E3BF0000000000000FB0108901411070040501508421405064090741402480A0350
1001
ACAD
1000
AcDbSavedByObjectVersion
1070
     0
  0
ACAD_PROXY_OBJECT
  5
32
102
{ACAD_REACTORS
330
29
102
}
330
29
100
AcDbProxyObject
 90
      499
 91
      502
 93
      500
310
4290DBDB98D95C1D1D585B10940D028333333333333E3BF0000000000000FB0107902409070040501000000000000111010841D405064090740C02480A0340
1001
ACAD
1000
AcDbSavedByObjectVersion
1070
     0
  0
ACAD_PROXY_OBJECT
  5
34
102
{ACAD_REACTORS
330
29
102
}
330
29
100
AcDbProxyObject
 90
      499
 91
      502
 93
      412
310
40D11A5B50B409028333333333333E3BF0000000000000FB010790141107004050150841D405064090741402480A02677FFFFFD0
1001
ACAD
1000
AcDbSavedByObjectVersion
1070
     0
  0
ACAD_PROXY_OBJECT
  5
38
102
{ACAD_REACTORS
330
29
102
}
330
29
100
AcDbProxyObject
 90
      499
 91
      502
 93
      444
310
42D19858D95C185D1D195C9B90F409028333333333333E3BF0000000000000FB010790141107004050150841D405064090741402480A0350
1001
ACAD
1000
AcDbSavedByObjectVersion
1070
     0
  0
ACAD_PROXY_OBJECT
  5
2A
102
{ACAD_REACTORS
330
29
102
}
330
29
100
AcDbProxyObject
 90
      499
 91
      502
 93
      388
310
41119B185D240901404333333333333E3BF0000000000000F9010740A41107004050150841D405064090741402480A1B50
1001
ACAD
1000
AcDbSavedByObjectVersion
1070
     0
  0
ACAD_PROXY_OBJECT
  5
2B
102
{ACAD_REACTORS
330
29
102
}
330
29
100
AcDbProxyObject
 90
      499
 91
      502
 93
      476
310
43519B185D15DA5D1A115919D95CD0140901404333333333333E3BF0000000000000F9010740901411070040501600405405064090741402480A1B50
1001
ACAD
1000
AcDbSavedByObjectVersion
1070
     0
  0
ACAD_PROXY_OBJECT
  5
2C
102
{ACAD_REACTORS
330
29
102
}
330
29
100
AcDbProxyObject
 90
      499
 91
      502
 93
      412
310
41D1DBDD5C985D5910240902404333333333333E3BF0000000000000F9010740A411070040501641D405064090741402480A1B50
1001
ACAD
1000
AcDbSavedByObjectVersion
1070
     0
  0
ACAD_PROXY_OBJECT
  5
2D
102
{ACAD_REACTORS
330
29
102
}
330
29
100
AcDbProxyObject
 90
      499
 91
      502
 93
      500
310
4411DBDD5C985D5915DA5D1A115919D95CD0340902404333333333333E3BF0000000000000F9010740901411070040501600405405064090741402480A1B50
1001
ACAD
1000
AcDbSavedByObjectVersion
1070
     0
  0
ACAD_PROXY_OBJECT
  5
37
102
{ACAD_REACTORS
330
29
102
}
330
29
100
AcDbProxyObject
 90
      499
 91
      502
 93
      444
310
42D31A5B995C185D1D195C9B90E409028333333333333E3BF0000000000000FB010790141107004050750841D405064090741402483A0350
1001
ACAD
1000
AcDbSavedByObjectVersion
1070
     0
  0
ACAD_PROXY_OBJECT
  5
33
102
{ACAD_REACTORS
330
29
102
}
330
29
100
AcDbProxyObject
 90
      499
 91
      502
 93
      420
310
425499585B1A5CDD1A58D08409028333333333333E3BF0000000000000FB01079019070040501508421405064090741402480A1B40
1001
ACAD
1000
AcDbSavedByObjectVersion
1070
     0
  0
ACAD_PROXY_OBJECT
  5
36
102
{ACAD_REACTORS
330
29
102
}
330
29
100
AcDbProxyObject
 90
      499
 91
      502
 93
      412
310
41D51A1A58DAD95B90D409028333333333333E3BF0000000000000FB010790141107004050150C41D405064090741402480A0350
1001
ACAD
1000
AcDbSavedByObjectVersion
1070
     0
  0
XRECORD
  5
47F
102
{ACAD_REACTORS
330
476
102
}
330
476
100
AcDbXrecord
 90
        0
  0
XRECORD
  5
498
102
{ACAD_REACTORS
330
476
102
}
330
476
100
AcDbXrecord
340
6B
  0
XRECORD
  5
495
102
{ACAD_REACTORS
330
476
102
}
330
476
100
AcDbXrecord
1000
DSTYLE
1002
{
1070
   273
 70
     4
1070
   277
 70
     4
1070
   340
340
5D
1002
}
  0
XRECORD
  5
480
102
{ACAD_REACTORS
330
476
102
}
330
476
100
AcDbXrecord
  1
{0FBD406E-AF74-4B97-8B90-43088BB05D78}
  0
XRECORD
  5
479
102
{ACAD_REACTORS
330
476
102
}
330
476
100
AcDbXrecord
  1

  0
XRECORD
  5
47E
102
{ACAD_REACTORS
330
476
102
}
330
476
100
AcDbXrecord
 90
        1
  0
XRECORD
  5
47B
102
{ACAD_REACTORS
330
476
102
}
330
476
100
AcDbXrecord
340
6A
  0
XRECORD
  5
47D
102
{ACAD_REACTORS
330
476
102
}
330
476
100
AcDbXrecord
 90
    10781
  0
XRECORD
  5
499
102
{ACAD_REACTORS
330
476
102
}
330
476
100
AcDbXrecord
340
10
  0
XRECORD
  5
47C
102
{ACAD_REACTORS
330
476
102
}
330
476
100
AcDbXrecord
340
69
  0
XRECORD
  5
482
102
{ACAD_REACTORS
330
476
102
}
330
476
100
AcDbXrecord
 40
0.0
  0
XRECORD
  5
485
102
{ACAD_REACTORS
330
476
102
}
330
476
100
AcDbXrecord
340
0
  0
XRECORD
  5
48B
102
{ACAD_REACTORS
330
476
102
}
330
476
100
AcDbXrecord
 10
0.0
 20
0.0
 30
0.0
  0
XRECORD
  5
487
102
{ACAD_REACTORS
330
476
102
}
330
476
100
AcDbXrecord
 10
0.0
 20
0.0
 30
0.0
  0
XRECORD
  5
48A
102
{ACAD_REACTORS
330
476
102
}
330
476
100
AcDbXrecord
 10
0.0
 20
0.0
 30
0.0
  0
XRECORD
  5
488
102
{ACAD_REACTORS
330
476
102
}
330
476
100
AcDbXrecord
 10
0.0
 20
0.0
 30
0.0
  0
XRECORD
  5
489
102
{ACAD_REACTORS
330
476
102
}
330
476
100
AcDbXrecord
 10
0.0
 20
0.0
 30
0.0
  0
XRECORD
  5
486
102
{ACAD_REACTORS
330
476
102
}
330
476
100
AcDbXrecord
 10
0.0
 20
0.0
 30
0.0
  0
XRECORD
  5
483
102
{ACAD_REACTORS
330
476
102
}
330
476
100
AcDbXrecord
340
0
  0
XRECORD
  5
484
102
{ACAD_REACTORS
330
476
102
}
330
476
100
AcDbXrecord
 70
     0
  0
XRECORD
  5
47A
102
{ACAD_REACTORS
330
476
102
}
330
476
100
AcDbXrecord
  1

  0
XRECORD
  5
477
102
{ACAD_REACTORS
330
476
102
}
330
476
100
AcDbXrecord
 90
        1
  0
XRECORD
  5
478
102
{ACAD_REACTORS
330
476
102
}
330
476
100
AcDbXrecord
 90
       70
  0
XRECORD
  5
48E
102
{ACAD_REACTORS
330
476
102
}
330
476
100
AcDbXrecord
340
0
  0
XRECORD
  5
494
102
{ACAD_REACTORS
330
476
102
}
330
476
100
AcDbXrecord
 10
0.0
 20
0.0
 30
0.0
  0
XRECORD
  5
490
102
{ACAD_REACTORS
330
476
102
}
330
476
100
AcDbXrecord
 10
0.0
 20
0.0
 30
0.0
  0
XRECORD
  5
493
102
{ACAD_REACTORS
330
476
102
}
330
476
100
AcDbXrecord
 10
0.0
 20
0.0
 30
0.0
  0
XRECORD
  5
491
102
{ACAD_REACTORS
330
476
102
}
330
476
100
AcDbXrecord
 10
0.0
 20
0.0
 30
0.0
  0
XRECORD
  5
492
102
{ACAD_REACTORS
330
476
102
}
330
476
100
AcDbXrecord
 10
0.0
 20
0.0
 30
0.0
  0
XRECORD
  5
48F
102
{ACAD_REACTORS
330
476
102
}
330
476
100
AcDbXrecord
 10
0.0
 20
0.0
 30
0.0
  0
XRECORD
  5
48C
102
{ACAD_REACTORS
330
476
102
}
330
476
100
AcDbXrecord
340
0
  0
XRECORD
  5
48D
102
{ACAD_REACTORS
330
476
102
}
330
476
100
AcDbXrecord
 70
     0
  0
XRECORD
  5
481
102
{ACAD_REACTORS
330
476
102
}
330
476
100
AcDbXrecord
  1
{0111541A-678C-4798-A677-A819A3998970}
  0
DICTIONARYVAR
  5
497
102
{ACAD_REACTORS
330
46A
102
}
330
46A
100
DictionaryVariables
280
     0
  1
1:1
  0
DICTIONARYVAR
  5
46C
102
{ACAD_REACTORS
330
46A
102
}
330
46A
100
DictionaryVariables
280
     0
  1
Standard
  0
DICTIONARYVAR
  5
475
102
{ACAD_REACTORS
330
46A
102
}
330
46A
100
DictionaryVariables
280
     0
  1
2
  0
DICTIONARYVAR
  5
474
102
{ACAD_REACTORS
330
46A
102
}
330
46A
100
DictionaryVariables
280
     0
  1
1
  0
DICTIONARYVAR
  5
473
102
{ACAD_REACTORS
330
46A
102
}
330
46A
100
DictionaryVariables
280
     0
  1
0
  0
DICTIONARYVAR
  5
470
102
{ACAD_REACTORS
330
46A
102
}
330
46A
100
DictionaryVariables
280
     0
  1
0
  0
DICTIONARYVAR
  5
471
102
{ACAD_REACTORS
330
46A
102
}
330
46A
100
DictionaryVariables
280
     0
  1
0
  0
DICTIONARYVAR
  5
46F
102
{ACAD_REACTORS
330
46A
102
}
330
46A
100
DictionaryVariables
280
     0
  1
2
  0
DICTIONARYVAR
  5
46D
102
{ACAD_REACTORS
330
46A
102
}
330
46A
100
DictionaryVariables
280
     0
  1
1
  0
DICTIONARYVAR
  5
472
102
{ACAD_REACTORS
330
46A
102
}
330
46A
100
DictionaryVariables
280
     0
  1
127
  0
XRECORD
  5
453
102
{ACAD_REACTORS
330
451
102
}
330
451
100
AcDbXrecord
  1
-2000038
  1
Ceilings
  1
-2001120
  1
Lighting Fixtures
  0
XRECORD
  5
454
102
{ACAD_REACTORS
330
451
102
}
330
451
100
AcDbXrecord
  1
-2001121
  1
Light Source
  0
XRECORD
  5
452
102
{ACAD_REACTORS
330
451
102
}
330
451
100
AcDbXrecord
  1
1651
  1
Basic Ceiling : Ceiling 1
  0
DICTIONARY
  5
49C
330
19
100
AcDbDictionary
280
     1
  3
ACAD_XREC_ROUNDTRIP
360
49D
  0
DICTIONARY
  5
49E
330
11
100
AcDbDictionary
280
     1
  3
ACAD_XREC_ROUNDTRIP
360
49F
  0
DICTIONARY
  5
4A0
330
21
100
AcDbDictionary
280
     1
  3
ACAD_XREC_ROUNDTRIP
360
4A1
  0
DICTIONARY
  5
44F
330
44E
100
AcDbDictionary
280
     1
  3
ACAD_XREC_ROUNDTRIP
360
4A2
  3
VIZ_XML_MATERIAL_DEFINITION
360
450
  0
DICTIONARY
  5
44C
330
44B
100
AcDbDictionary
280
     1
  3
ACAD_XREC_ROUNDTRIP
360
4A3
  3
VIZ_XML_MATERIAL_DEFINITION
360
44D
  0
DICTIONARY
  5
446
330
445
100
AcDbDictionary
280
     1
  3
ACAD_XREC_ROUNDTRIP
360
4A4
  3
VIZ_XML_MATERIAL_DEFINITION
360
447
  0
DICTIONARY
  5
449
330
448
100
AcDbDictionary
280
     1
  3
ACAD_XREC_ROUNDTRIP
360
4A5
  3
VIZ_XML_MATERIAL_DEFINITION
360
44A
  0
XRECORD
  5
49D
102
{ACAD_REACTORS
330
49C
102
}
330
49C
100
AcDbXrecord
102
MATERIAL
148
0.0
149
0.0
149
0.0
 93
        0
 94
      127
282
     0
 72
     0
 77
     0
171
     0
175
     0
179
     0
273
     0
  0
XRECORD
  5
49F
102
{ACAD_REACTORS
330
49E
102
}
330
49E
100
AcDbXrecord
102
MATERIAL
148
0.0
149
0.0
149
0.0
 93
        0
 94
      127
282
     0
 72
     0
 77
     0
171
     0
175
     0
179
     0
273
     0
  0
XRECORD
  5
4A1
102
{ACAD_REACTORS
330
4A0
102
}
330
4A0
100
AcDbXrecord
102
MATERIAL
148
0.0
149
0.0
149
0.0
 93
        0
 94
      127
282
     0
 72
     0
 77
     0
171
     0
175
     0
179
     0
273
     0
  0
XRECORD
  5
4A2
102
{ACAD_REACTORS
330
44F
102
}
330
44F
100
AcDbXrecord
102
MATERIAL
148
0.0
149
0.0
149
0.0
 93
        0
 94
      127
282
     0
 72
     1
 77
     0
171
     1
175
     0
179
     1
273
     0
  0
XRECORD
  5
450
102
{ACAD_REACTORS
330
44F
102
}
330
44F
100
AcDbXrecord
300
<Material id="RevitMaterialDefinition1597" app="REVIT" Background="0" Backlight="1" Sample="0" Tiling="0">^J<LinearUnits unitType="foot" unitScale="1.0"/>^J<ArchitecturalMaterial name="Diffuser Lens - Acrylic Plastic - Frosted">^J<ArchTemplateParameters name
300
="Diffuser Lens - Acrylic Plastic - Frosted" classid_A="2008828122" classid_B="14503598">^J</ArchTemplateParameters>^J<ArchMatParameters>^J<ArchDiffuseColor>^J<RGBf r="0.9686" g="0.9686" b="0.9686"/>^J</ArchDiffuseColor>^J<ArchIndexOfRefraction>1.0938</ArchInde
300
xOfRefraction>^J<ArchTransparency>0.8400</ArchTransparency>^J<ArchLuminance>0.0000</ArchLuminance>^J</ArchMatParameters>^J<MapSet>^J<MapLib>^J<TextureMap name="Diffuser Lens - Acrylic Plastic - Frosted texture" id="RevitTextureDefinition1597">^J<BitmapMap>^J<TexM
300
apCoords2d>^J<TextureCoords>^J<ExplicitMapChannel CoordPlane="uv">^J<MapChannel>1</MapChannel>^J<UCoords>^J<OffsetCoord>0.0000</OffsetCoord>^J<TilingCoord>0.0000</TilingCoord>^J<TextureTiling Tiling="tile"/>^J</UCoords>^J<VCoords>^J<OffsetCoord>0.0000</OffsetCoord>
300
^J<TilingCoord>0.0000</TilingCoord>^J<TextureTiling Tiling="tile"/>^J</VCoords>^J</ExplicitMapChannel>^J</TextureCoords>^J</TexMapCoords2d>^J<BitmapParameters>^J<BitmapFile filename="C:\Users\Robert\AppData\Local\Temp"/>^J<Cropping on="0" CropType="crop">^J<UCrop>0
300
.0</UCrop>^J<VCrop>0.0</VCrop>^J<WCrop>1.0</WCrop>^J<HCrop>1.0</HCrop>^J</Cropping>^J</BitmapParameters>^J</BitmapMap>^J</TextureMap>^J</MapLib>^J<Map on="1" TexMapChannelNum="1" TexMapChannel="Diffuse Map" Amount="100" TexMapRef="RevitTextureDefinition1597"/>^J</M
300
apSet>^J</ArchitecturalMaterial>^J</Material>^J
  0
XRECORD
  5
4A3
102
{ACAD_REACTORS
330
44C
102
}
330
44C
100
AcDbXrecord
102
MATERIAL
148
0.0
149
0.0
149
0.0
 93
        0
 94
      127
282
     0
 72
     1
 77
     0
171
     1
175
     0
179
     1
273
     0
  0
XRECORD
  5
44D
102
{ACAD_REACTORS
330
44C
102
}
330
44C
100
AcDbXrecord
300
<Material id="RevitMaterialDefinition1601" app="REVIT" Background="0" Backlight="1" Sample="0" Tiling="0">^J<LinearUnits unitType="foot" unitScale="1.0"/>^J<ArchitecturalMaterial name="Diffuser Trim_Injection Molded Acrylic - White">^J<ArchTemplateParameters
300
 name="Diffuser Trim_Injection Molded Acrylic - White" classid_A="2008828122" classid_B="14503598">^J</ArchTemplateParameters>^J<ArchMatParameters>^J<ArchDiffuseColor>^J<RGBf r="0.9765" g="0.9765" b="0.9765"/>^J</ArchDiffuseColor>^J<ArchIndexOfRefraction>2.0000
300
</ArchIndexOfRefraction>^J<ArchTransparency>0.0000</ArchTransparency>^J<ArchLuminance>0.0000</ArchLuminance>^J</ArchMatParameters>^J<MapSet>^J<MapLib>^J<TextureMap name="Diffuser Trim_Injection Molded Acrylic - White texture" id="RevitTextureDefinition1601">^J<B
300
itmapMap>^J<TexMapCoords2d>^J<TextureCoords>^J<ExplicitMapChannel CoordPlane="uv">^J<MapChannel>1</MapChannel>^J<UCoords>^J<OffsetCoord>0.0000</OffsetCoord>^J<TilingCoord>0.0000</TilingCoord>^J<TextureTiling Tiling="tile"/>^J</UCoords>^J<VCoords>^J<OffsetCoord>0.000
300
0</OffsetCoord>^J<TilingCoord>0.0000</TilingCoord>^J<TextureTiling Tiling="tile"/>^J</VCoords>^J</ExplicitMapChannel>^J</TextureCoords>^J</TexMapCoords2d>^J<BitmapParameters>^J<BitmapFile filename="C:\Users\Robert\AppData\Local\Temp"/>^J<Cropping on="0" CropType="
300
crop">^J<UCrop>0.0</UCrop>^J<VCrop>0.0</VCrop>^J<WCrop>1.0</WCrop>^J<HCrop>1.0</HCrop>^J</Cropping>^J</BitmapParameters>^J</BitmapMap>^J</TextureMap>^J</MapLib>^J<Map on="1" TexMapChannelNum="1" TexMapChannel="Diffuse Map" Amount="100" TexMapRef="RevitTextureDefini
300
tion1601"/>^J</MapSet>^J</ArchitecturalMaterial>^J</Material>^J
  0
XRECORD
  5
4A4
102
{ACAD_REACTORS
330
446
102
}
330
446
100
AcDbXrecord
102
MATERIAL
148
0.0
149
0.0
149
0.0
 93
        0
 94
      127
282
     0
 72
     1
 77
     0
171
     1
175
     0
179
     1
273
     0
  0
XRECORD
  5
447
102
{ACAD_REACTORS
330
446
102
}
330
446
100
AcDbXrecord
300
<Material id="RevitMaterialDefinition2774" app="REVIT" Background="0" Backlight="1" Sample="0" Tiling="0">^J<LinearUnits unitType="foot" unitScale="1.0"/>^J<ArchitecturalMaterial name="Default Light Source">^J<ArchTemplateParameters name="Default Light Sourc
300
e" classid_A="2008828122" classid_B="14503598">^J</ArchTemplateParameters>^J<ArchMatParameters>^J<ArchDiffuseColor>^J<RGBf r="1.0000" g="1.0000" b="0.0000"/>^J</ArchDiffuseColor>^J<ArchIndexOfRefraction>1.5000</ArchIndexOfRefraction>^J<ArchTransparency>0.7500</A
300
rchTransparency>^J<ArchLuminance>0.0000</ArchLuminance>^J</ArchMatParameters>^J<MapSet>^J<MapLib>^J<TextureMap name="Default Light Source texture" id="RevitTextureDefinition2774">^J<BitmapMap>^J<TexMapCoords2d>^J<TextureCoords>^J<ExplicitMapChannel CoordPlane="uv"
300
>^J<MapChannel>1</MapChannel>^J<UCoords>^J<OffsetCoord>0.0000</OffsetCoord>^J<TilingCoord>0.0000</TilingCoord>^J<TextureTiling Tiling="tile"/>^J</UCoords>^J<VCoords>^J<OffsetCoord>0.0000</OffsetCoord>^J<TilingCoord>0.0000</TilingCoord>^J<TextureTiling Tiling="tile"
300
/>^J</VCoords>^J</ExplicitMapChannel>^J</TextureCoords>^J</TexMapCoords2d>^J<BitmapParameters>^J<BitmapFile filename="C:\Users\Robert\AppData\Local\Temp"/>^J<Cropping on="0" CropType="crop">^J<UCrop>0.0</UCrop>^J<VCrop>0.0</VCrop>^J<WCrop>1.0</WCrop>^J<HCrop>1.0</HC
300
rop>^J</Cropping>^J</BitmapParameters>^J</BitmapMap>^J</TextureMap>^J</MapLib>^J<Map on="1" TexMapChannelNum="1" TexMapChannel="Diffuse Map" Amount="100" TexMapRef="RevitTextureDefinition2774"/>^J</MapSet>^J</ArchitecturalMaterial>^J</Material>^J
  0
XRECORD
  5
4A5
102
{ACAD_REACTORS
330
449
102
}
330
449
100
AcDbXrecord
102
MATERIAL
148
0.0
149
0.0
149
0.0
 93
        0
 94
      127
282
     0
 72
     1
 77
     0
171
     1
175
     0
179
     1
273
     0
  0
XRECORD
  5
44A
102
{ACAD_REACTORS
330
449
102
}
330
449
100
AcDbXrecord
300
<Material id="RevitMaterialDefinition908" app="REVIT" Background="0" Backlight="1" Sample="0" Tiling="0">^J<LinearUnits unitType="foot" unitScale="1.0"/>^J<ArchitecturalMaterial name="Default">^J<ArchTemplateParameters name="Default" classid_A="2008828122" c
300
lassid_B="14503598">^J</ArchTemplateParameters>^J<ArchMatParameters>^J<ArchDiffuseColor>^J<RGBf r="0.6314" g="0.6275" b="0.6353"/>^J</ArchDiffuseColor>^J<ArchIndexOfRefraction>2.0000</ArchIndexOfRefraction>^J<ArchTransparency>0.0000</ArchTransparency>^J<ArchLumin
300
ance>0.0000</ArchLuminance>^J</ArchMatParameters>^J<MapSet>^J<MapLib>^J<TextureMap name="Default texture" id="RevitTextureDefinition908">^J<BitmapMap>^J<TexMapCoords2d>^J<TextureCoords>^J<ExplicitMapChannel CoordPlane="uv">^J<MapChannel>1</MapChannel>^J<UCoords>^J<O
300
ffsetCoord>0.0000</OffsetCoord>^J<TilingCoord>0.0000</TilingCoord>^J<TextureTiling Tiling="tile"/>^J</UCoords>^J<VCoords>^J<OffsetCoord>0.0000</OffsetCoord>^J<TilingCoord>0.0000</TilingCoord>^J<TextureTiling Tiling="tile"/>^J</VCoords>^J</ExplicitMapChannel>^J</Tex
300
tureCoords>^J</TexMapCoords2d>^J<BitmapParameters>^J<BitmapFile filename="C:\Users\Robert\AppData\Local\Temp"/>^J<Cropping on="0" CropType="crop">^J<UCrop>0.0</UCrop>^J<VCrop>0.0</VCrop>^J<WCrop>1.0</WCrop>^J<HCrop>1.0</HCrop>^J</Cropping>^J</BitmapParameters>^J</Bi
300
tmapMap>^J</TextureMap>^J</MapLib>^J<Map on="1" TexMapChannelNum="1" TexMapChannel="Diffuse Map" Amount="100" TexMapRef="RevitTextureDefinition908"/>^J</MapSet>^J</ArchitecturalMaterial>^J</Material>^J
  0
ENDSEC
  0
EOF
